Log in

One click and you are in

Login with Facebook Login with Google

Why sign up and log in

Guitar Tabs Explorer
Kool And The Gang bass tabs for Jungle boogie

Bass tabs

"Jungle Boogie"
 by Kool and the Gang from the Pulp Fiction Soundtrack
     Tabbed by Dave Miller (dwm3@po.cwru.edu)


  Intro/Chorus

|--------------------------3-3-0-0-2-3-0--------------
|--------------------0-3-4---------------4-3-0--------
|-----1--------1-3-4---------------------------4-3----
|-3-3---3-1--3----------------------------------------


  Verse

|-----------------------------------------------------
|-----------3(2)--------------------------------------
|-----------------------------------------------------
|-3--3--3---------3--3--3-----3--3--------------------

Almost there ...

Sign in to get your own page with links to favourite songs and more. You are just one click away...

Login with Facebook Login with Google