Log in

One click and you are in

Login with Facebook Login with Google

Why sign up and log in

Guitar Tabs Explorer
Kontrafakt bass tabs for O5 s5

Bass tabs

Key: Cm


Intro:

G|---------------------------------------------------------------------------------------------|
D|---------------------------------------------------------------------------------------------|
A|-------------------------------------------------------------------------------------------6-|
E|---------------------------------------------------------------------------------------------|

Verse 1:

G|---------------------------------------------------------------------------------------------|
D|---------------------------------------------------------------------------------------------|
A|3--3--5---3--6-6--5--3---3--3--5---3--6-6--5--3---3--3--5---3--6-6--5--3---3--3--5---3--5-3--|
E|---------------------------------------------------------------------------------------------|


Chorus:

G|---------------------------------------------------------------------------------------------|
D|---------------------------------------------------------------------------------------------|
A|3--3--5---3--6-6--5--3---3--3--5---3--6-6--5--3---3--3--5---3--6-6--5--3---3--3--5---3--5-3--|
E|---------------------------------------------------------------------------------------------|


Verse 2:

G|---------------------------------------------------------------------------------------------|
D|---------------------------------------------------------------------------------------------|
A|3--3--5---3--6-6--5--3---3--3--5---3--6-6--5--3---3--3--5---3--6-6--5--3---3--3--5---3--5-3--|
E|---------------------------------------------------------------------------------------------|


Chorus:

G|---------------------------------------------------------------------------------------------|
D|---------------------------------------------------------------------------------------------|
A|3--3--5---3--6-6--5--3---3--3--5---3--6-6--5--3---3--3--5---3--6-6--5--3---3--3--5---3--5-3--|
E|---------------------------------------------------------------------------------------------|


G|---------------------------------------------------------------------------------------------|
D|---------------------------------------------------------------------------------------------|
A|3--3--5---3--6-6--5--3---3--3--5---3--6-6--5--3---3--3--5---3--6-6--5--3---3--3--5---3--5-3--|
E|---------------------------------------------------------------------------------------------|


Bridge:

G|---------------------------------------------------------------------------------------------|
D|---------------------------------------------------------------------------------------------|
A|3--3--5---3--6-6--5--3---3--3--5---3--6-6--5--3---3--3--5---3--6-6--5--3---3--3--5---3--5-3--|
E|---------------------------------------------------------------------------------------------|


Outro:

G|---------------------------------------------------------------------------------------------|
D|---------------------------------------------------------------------------------------------|
A|3--3--5--------------------------------------------------------------------------------------|
E|---------------------------------------------------------------------------------------------|


Cheers and enjoy!
Roland

Almost there ...

Sign in to get your own page with links to favourite songs and more. You are just one click away...

Login with Facebook Login with Google