Log in

One click and you are in

Login with Facebook Login with Google

Why sign up and log in

Guitar Tabs Explorer
Konomi Suzuki guitar tabs for Realize

Guitar tabs

Tuning: Drop A chord diagramBb majorBb (A chord diagramBb majorBb A chord diagramFF A chord diagramBb majorBb A chord diagramEb MajorEb A chord diagramG MajorG A chord diagramC majorC)

Realize - Konomi Suzuki
-----------------------------------------------------------------
Tabbed by: RyanCGuitar
Tuning: A chord diagramC majorC A chord diagramG MajorG A chord diagramEb MajorEb A chord diagramBb majorBb A chord diagramFF A chord diagramBb majorBb
        1 2 3  4  5 6


Note: Please refer to video in the description for rhythm and palm muting if needed.


Intro:

A chord diagramC majorC |------------------------------------------------------------------|
A chord diagramG MajorG |------------------------------------------------------------------|
Eb|------------------------------------------------------------------|
Bb|--0--2--2/4-------------------------4-4--4-4-4--------------------|
A chord diagramFF |--0--2--2/4-------------------------4-4--4-4-4--------------------|
Bb|--0--2--2/4--4-4-4-4-4-4-4-4-4-4-4--4-4--4-4-4--2+~---------------|


Verse:

A chord diagramC majorC |-----9----9----9--------------------------------------------------------|
A chord diagramG MajorG |-/12---12---12---12\----------------------------------------------------|
Eb|------------------------------------------------------------------------|
Bb|----------------------4--4--4-4(4x)--7--7--7-7(4x)--7--7--7-7(4x)-------|
A chord diagramFF |----------------------4--4--4-4------5--5--5-5------7--7--7-7-----------|
Bb|----------------------4--4--4-4---------------------7--7--7-7-----------|

A chord diagramC majorC |------------------------------------------------------------------------|
A chord diagramG MajorG |------------------------------------------------------------------------|
Eb|------------------------------------------------------------------------|
Bb|--6--6--6-6--6-6-6--6/9-9-9-9-9-9-9\------------------------------------|
A chord diagramFF |--6--6--6-6--6-6-6--6/9-9-9-9-9-9-9\------------------------------------|
Bb|--6--6--6-6--6-6-6--6/9-9-9-9-9-9-9\------------------------------------|

Pre-Chorus:

A chord diagramC majorC |-------------------------------------------------------------------------------------------------------|
A chord diagramG MajorG |-------------------------------------------------------------------------------------------------------|
Eb|-------------------------------------------------------------------------------------------------------|
Bb|--7--7--7--7-7-7-7-7--7-7---4--4--4--4-4-4-4-4----------------------------------------2-2-2-2--2-2-----|
A chord diagramFF |--5--5--5--5-5-5-5-5--5-5---2--2--2--2-2-2-2-2-------------------4--------------------2-2-2-2--2-2-----|
Bb|-----------------------------------------------17\--4-4-4-x4-4-/7--4--4-4---4-4-4-x4--2-2-2-2--2-2-----|


A chord diagramC majorC |-------------------------------------------------------------------------------------------------------|
A chord diagramG MajorG |-------------------------------------------------------------------------------------------------------|
Eb|------------------------------------10---------------7-------------------------------------------------|
Bb|-----5-------------------------------9---------------6---------------6-----6-----6-----6-----6---7-----|
A chord diagramFF |-----5--5-5-5-5-5-5-5-5-5-5-5-5-5-5--8--8-8-8-8-8-8--5--5-5-5-5-5-5--4-4-4-4-4-4-4-4-4-4-4-4-4-4-5-----|
Bb|-17\-5--5-5-5-5-5-5-5-5-5-5-5-5-5-5--------------------------------------------------------------------|

A chord diagramC majorC |--------------------------------|
A chord diagramG MajorG |-------6h7---9------------------|
Eb|-6-6h7-----7--------------------|
Bb|--------------------------------|
A chord diagramFF |--------------------------------|
Bb|--------------------------------|


Chorus:

A chord diagramC majorC |----------------------------------------------------------------------------------|
A chord diagramG MajorG |----------------------------------------------------------------------------------|
Eb|-----------------------------------------------------11-11-11-11-10-10-10---------|
Bb|--8-8-8-8-8-8-8-8-8-8-8-8-8-8-8-8--4-4-4-4-4-4-4-4--------------------------------|
A chord diagramFF |--6-6-6-6-6-6-6-6-6-6-6-6-6-6-6-6--2-2-2-2-2-2-2-2---9--9--9--9--8--8--8----------|
Bb|----------------------------------------------------------------------------------|
-
A chord diagramC majorC |----------------------------------------------------------------------------------|
A chord diagramG MajorG |----------------------------------------------------------------------------------|
Eb|------------------------------------------------13-13-13-13-13-13-----------------|
Bb|--11-11-11-11-11-11-11-11-11-11-11-11-11-11-11---------------------6-6-6-6-6-6----|
A chord diagramFF |--9--9--9--9--9--9--9--9--9--9--9--9--9--9--9---11-11-11-11-11-11--5-5-5-5-5-5----|
Bb|----------------------------------------------------------------------------------|

A chord diagramC majorC |----------------------------------------------------------------------------------|
A chord diagramG MajorG |----------------------------------------------------14-11h14p11-------------------|
Eb|----------------------------------------------------------------13-11-------------|
Bb|--8-8-8-8-8-8-8-8-8-8-8-8-8-8-8-8--4-4-4-4-4-4-4-4--------------------------------|
A chord diagramFF |--6-6-6-6-6-6-6-6-6-6-6-6-6-6-6-6--2-2-2-2-2-2-2-2--------------------------------|
Bb|----------------------------------------------------------------------------------|

A chord diagramC majorC |----------------------------------------------------------------------------------|
A chord diagramG MajorG |----------------------------------------------------------------------------------|
Eb|-------------------------------------------------13-13-13-13-13-13----------------|
Bb|--/11-11-11-11-11-11-11-11-11-11-11-11-11-11-11---------------------6-6-6-6-6-6---|
A chord diagramFF |--/9--9--9--9--9--9--9--9--9--9--9--9--9--9--9---11-11-11-11-11-11--5-5-5-5-5-5---|
Bb|----------------------------------------------------------------------------------|

A chord diagramC majorC |-----------------------------------------------|
A chord diagramG MajorG |-----------------------------------------------|
Eb|-----------------------------------------------|
Bb|--4-----4-----4-----4-----4---4--6-6-6-6--6-6--|
A chord diagramFF |--2-2-2-2-2-2-2-2-2-2-2-2-2-2-2--4-4-4-4--4-4--|
Bb|-----------------------------------------------|


Outro:

A chord diagramC majorC |-------------------------------------------------------------------------------------------------------|
A chord diagramG MajorG |-------------------------------------------------------------------------------------------------------|
Eb|-------------------------------------------------------------------------------------------------------|
Bb|-------------------------------------------------------------------------------------------------------|
A chord diagramFF |----------------------------/6-6-4-6--------------------------------------------------------/6-6-4-6---|
Bb|--17\-1-3p1-4p1-1-3p1-1-4p1----------1-3p1-4p1-1-3p1-1-4p1-1/4-6-6-6--1-3p1-4p1-1-3p1-1-4p1------------|

A chord diagramC majorC |-------------|
A chord diagramG MajorG |-------------|
Eb|-------------|
Bb|----------1-1|
A chord diagramFF |----------1-1|
Bb|--1-3p1-4-1-1|

| /  slide up
| \  slide down
| h  hammer-on
| p  pull-off
| ~  vibrato
| +  harmonic
| x  Mute note

↓ Add and view comments below ↓

What do you think about this song and these tabs?

Add your comments, questions, rant or a thumbs up below.

Almost there ...

Sign in to get your own page with links to favourite songs and more. You are just one click away...

Login with Facebook Login with Google