Log in

One click and you are in

Login with Facebook Login with Google

Why sign up and log in

Guitar Tabs Explorer
Kodaline bass tabs for High hopes

Bass tabs

Tuning: Half-Step Down (Eb Ab Db Gb)
Bass sets in at first chorus (~0:50)


Chorus:

  High Hopes...            High Hopes...

Gb|--------|--------|--------|---------|--------|--------|--------|---------|
Db|--------|--------|--------|---------|--------|--------|--------|---------|
Ab|--------|8-------|--------|---------|--------|8-------|--------|---------|
Eb|6-------|--------|5-------|10---8---|6-------|--------|5-------|10---8---|

  Hi-igh Hopes...

Gb|--------|--------|--------|----------|--------|----------|--------|
Db|--------|--------|7-------|12---10---|8-8---8-|h10-------|--------|
Ab|--------|8-------|--------|----------|--------|----------|--------|
Eb|6-------|--------|--------|----------|--------|----------|--------|


Interlude:

around.

Gb|10-------|9-------|7-------|----7----|---------|---------|--------|-------------|
Db|---------|--------|--------|------10-|8-----7h8|---------|7-------|12-10h12-----|
Ab|---------|--------|--------|---------|---------|8-----10-|--------|--------10-8-|
Eb|---------|--------|--------|---------|---------|---------|--------|-------------|

Gb|--------|--------|----------|------------|
Db|8-------|----7-8-|/10-------|------------|
Ab|--------|--------|----------|-----10h12,8|
Eb|--------|--------|----------|------------|


Verse 2:

 And in my dreams...

Gb|--------|--------|-------------|-----------|--------|--------|--------|----------|
Db|--------|--------|-------------|-----------|--------|--------|--------|----------|
Ab|8---8-88|7---7-77|-------------|-----------|--------|8---8-88|--------|----------|
Eb|--------|--------|10---10-10,10|10-10-10-8-|6---6-66|--------|5-5-5-55|10-10-8-8-|

 naive I was just...

Gb|--------|--------|--------|----------|--------|--------|--------|--------|
Db|--------|--------|--------|----------|--------|--------|--------|--------|
Ab|--------|8---8-88|--------|----------|--------|--------|--------|----7---|
Eb|66--6-66|--------|5---5-5-|10-10-8---|6---6--6|-66-6-66|8---8-88|8-8---8-|


Chorus:

  High Hopes...

Gb|--------|--------|--------|----------|--------|--------|--------|----------|
Db|--------|--------|--------|----------|--------|--------|--------|----------|
Ab|--------|888-8-8-|--------|----------|--------|x88-8-8-|--------|----------|
Eb|6---6-66|--------|5---5-5-|10-10-8-8-|6---6-66|--------|5-5-5-5-|10-10-8-8-|

  Hi-igh Hopes...             Now the world...

Gb|--------|--------|--------|----------|--------|--------|--------|--------|
Db|--------|--------|--------|----------|--------|--------|--------|--------|
Ab|--------|8-8-8-8-|--------|----------|--------|--------|--------|--------|
Eb|6-6-6-66|--------|5-5-5-55|10-10-8-8-|6---6-66|-66-6-6-|88--8--8|-88-88--|

   Yeah the world...

Gb|--------|--------|--------|--------|
Db|--------|--------|--------|--------|
Ab|--------|--------|--------|--------|
Eb|6---6--6|-66-6-66|88--8--8|-88-8---|


Guitar Solo:

Gb|--------|--------|--------|--------|--------|--------|--------|-------------|
Db|--------|--------|--------|--------|--------|--------|--------|-------------|
Ab|8-8-8-88|877-7-7-|5---5-55|555-5-55|--------|888-8-88|--------|-------------|
Eb|--------|--------|--------|--------|6---6-66|--------|5-5-5-55|10-10,10,8-88|

Gb|--------|--------|--------|------------------------|
Db|--------|--------|--------|------------------------|
Ab|--------|--------|--------|/11,11,11,11,11,11,11,11|
Eb|6-6-6-66|666-6-66|8-8-8-8-|------------------------|


Last Chorus:

  High Hopes...

Gb|-------------|----------|--------|---------|--------|--------|---------|---10h12---9-|
Db|-------------|----------|7-7-----|---------|--------|--------|7-7-7-10-|12------10---|
Ab|11-11-11-11\-|8-8-8-8h10|----8-7-|---------|--------|8-8-8-88|---------|-------------|
Eb|-------------|----------|--------|10---8---|6-6-6-66|--------|---------|-------------|

  Hi-igh Hopes...

Gb|------9h10|----------|--------|------------|--------|--------|--------|--------|
Db|8---8-----|----------|7-7-----|------------|--------|--------|--------|------7-|
Ab|----------|8---8-8h10|----8-7-|---8h10--10-|--------|--------|-------7|-8-10---|
Eb|----------|----------|--------|10-----8----|6-6-6-66|-66-6-6-|8-8-8-x-|--------|

  Yeah this world...

Gb|--------|-----------|-----------|--------------|--------|---------|-----------|
Db|8---8---|--8-7h8----|10---10--10|-10,10-10,10--|8---8--8|-87------|10---10--10|
Ab|--------|-------8h10|-----------|------------8-|--------|----8-10-|-----------|
Eb|--------|-----------|-----------|--------------|--------|---------|-----------|

          How this world...

Gb|--------------|--------|--------|---------|--------|
Db|-10,10-10,10--|8-------|--------|10-------|--------|
Ab|--------------|--------|--------|---------|--------|
Eb|--------------|--------|--------|---------|--------|


Outro:

around.

Gb|10-------|9-------|7-h9-p7-7-|----7----|--------|---------|---------|--------|
Db|---------|--------|----------|------10-|8-------|---------|10-------|--------|
Ab|---------|--------|----------|---------|--------|----8-10-|---------|--------|
Eb|---------|--------|----------|---------|--------|---------|---------|--------|

Gb|9h10-------|
Db|-----------|
Ab|-----------|
Eb|-----------|


************************************

| x  Dead note
| h  Hammer-on
| p  Pull-off

| /  Slide up
| \  Slide down

, PURELY VISUAL aid to improve readability when bars with double digits are involved

************************************

Almost there ...

Sign in to get your own page with links to favourite songs and more. You are just one click away...

Login with Facebook Login with Google