Log in

One click and you are in

Login with Facebook Login with Google

Why sign up and log in

Guitar Tabs Explorer
Mallory Knox guitar tabs for Resuscitate

Guitar tabs

INTRO/VERSE

Electric 1

E|-----------------------------|
B|------------------8--------8-|
G|----10----9----10------10----|
D|-10----10---10------10-------|
A|-----------------------------|
D|-----------------------------|

Electric 2

E|------------------------------------------------|
B|-------------------------------------8--------8-|
G|----10----9----9-10----10----9----10------10----|
D|-10----10---10------10----10---10------10-------|
A|------------------------------------------------|
D|------------------------------------------------|


PRE-CHORUS

Electric 1
                    (end on)
E|-----------------  -----|
B|---------------8-  -----|
G|----9-10----9----  --10-|
D|-10------10------  --10-|
A|-----------------  -----|
D|-----------------  -----|

Electric 2
                    (end on)
E|-----------------  -----|
B|---------------8-  -----|
G|----9-10----9---   --10-|
D|-10------10------  --10-|
A|-----------------  -----|
D|-----------------  -----|

CHORUS

Electric 1+2

E|------------|
B|------------|
G|------------|
D|-0-3-8-7-10-|
A|-0-3-8-7-10-|
D|-0-3-8-7-10-|

POST

Electric 1+2

E|---------------------    -----------|
B|---------------------    -----------|
G|---------------------    -----------|
D|-0-0-0-0----10101010- x2 --10101010-| x3
A|-0-0-0-0----10101010-    --10101010-|
D|-0-0-0-0----10101010-    --10101010-|
   * * * *


VERSE


PRE-CHORUS


CHORUS

POST/BREAKDOWN

Electric 2

E|-------------------|
B|-------------------|
G|-------------------|
D|-0-0-0-0--14141414-|
A|-0-0-0-0--12121212-|
D|-0-0-0-0--12121212-|


SOLO/BRIDGE (part 1)

Electric 1

E|-------------------------|
B|-------------13----------|
G|-------12-14----14-12----|
D|-12-15----------------15-| x8
A|-------------------------|
D|-------------------------|

Electric 2

E|---------------------|
B|---------------------|
G|---------------------|
D|-0-0-0-0----10101010-|
A|-0-0-0-0----10101010-|
D|-0-0-0-0----10101010-|


SOLO/BRIDGE (part 2)

Electric 1

E|----------------------------|
B|-------------------------13-|
G|-10----10h12-9-1010-9-10----|
D|----------------------------|
A|----------------------------|
D|----------------------------|

Electric 2

E|------------------------------------|
B|------------------------------------|
G|----9-10----10-9----9-10----9-12-10-|
D|-10------10------10------10---------|
A|------------------------------------|
D|------------------------------------|


SOLO/BRIDGE (part 3)

Electric 1

E|---------|
B|------13-|
G|-9-10----|
D|---------|
A|---------|
D|---------|

Electric 2

E|------------------------------------|
B|------------------------------------|
G|----9-10----10-9----9-10----9-12-10-|
D|-10------10------10------10---------|
A|------------------------------------|
D|------------------------------------|


PRE-CHORUS

Electric 1
Clean
E|----|
B|----|
G|-10-|
D|-x--|
A|-8--|
D|----|

THEN...

Electric 1+2

E|--------|
B|--------|
G|--------|
D|-8-7-10-|
A|-8-7-10-|
D|-8-7-10-|


CHORUS

Other versions of Resuscitate

ResuscitateChords

↓ Add and view comments below ↓

What do you think about this song and these tabs?

Add your comments, questions, rant or a thumbs up below.

Almost there ...

Sign in to get your own page with links to favourite songs and more. You are just one click away...

Login with Facebook Login with Google