Log in

One click and you are in

Login with Facebook Login with Google

Why sign up and log in

Guitar Tabs Explorer
Mallory Knox guitar tabs for Keeping secrets

Guitar tabs

Keeping Secrets - Mallory Knox


Tuning: Drop A chord diagramC#C#
INTRO

Electric 1
D#|-----20--15------15-----|
A#|-16----------10------15-|
F#|------------------------|
C#|------------------------|
G#|------------------------|
C#|------------------------|

Electric 2
pm (listen to song)
D#|----------------------------|
A#|----------------------------|
F#|-8--10--7--10--8--10--12--7-|
C#|-x--x---x--x---x--x---x---x-|
G#|-6--8---5--8---6--8---10--5-|
C#|----------------------------|


VERSE

Electric 1
D#|-----20--15------15-----|
A#|-16----------10------15-|
F#|------------------------|
C#|------------------------|
G#|------------------------|
C#|------------------------|

Electric 2
pm (listen to song)
D#|----------------------------|
A#|----------------------------|
F#|-8--10--7--10--8--10--12--7-|
C#|-x--x---x--x---x--x---x---x-|
G#|-6--8---5--8---6--8---10--5-|
C#|----------------------------|


CHORUS

Electric 1
D#|---------------------------8--10--13-|
A#|-11--8-------------x3--11------------|
F#|--------10--8--7h8-------------------|
C#|-------------------------------------|
G#|-------------------------------------|
C#|-------------------------------------|

Electric 2
D#|-------------|
A#|-------------|
F#|-------------|
C#|-6--3--10--8-|
G#|-6--3--10--8-|
C#|-6--3--10--8-|

POST

Electric 1
D#|-----20--15------15-----|
A#|-16----------10------15-|
F#|------------------------|
C#|------------------------|
G#|------------------------|
C#|------------------------|

Electric 2
D#|-----------------------------------|
A#|-----------------------------------|
F#|-8--12\10--7--8--13-12-13-15-13-12-|
C#|-X--X--X---X--X--------------------|
G#|-6--10\8---5--6--------------------|
C#|-----------------------------------|

PLAY VERSE


PLAY CHORUS


BRIDGE (part 1)

Electric 1
D#|-----------------------|
A#|---------11--9---------|
F#|-12--10---------12--10-|
C#|-----------------------|
G#|-----------------------|
C#|-----------------------|

Electric 2
D#|-------------|
A#|-------------|
F#|-------------|
C#|-6--3--10--8-|
G#|-6--3--10--8-|
C#|-6--3--10--8-|


BRIDGE (part 2)

Electric 1
Clean
D#|-----------------------------------------------------------------------|
A#|-8-----9--8---------------9--8-----------9--8---------11----9--8-------|
F#|-8--8--------8--10/12--8--------8/12--8--------8--10-----8--------8/12-|
C#|-----------------------------------------------------------------------|
G#|-----------------------------------------------------------------------|
C#|-----------------------------------------------------------------------|


OUTRO

Electric 1+2
D#|------|
A#|-9--4-|
F#|-8--3-|
C#|-6--1-|
G#|-6--1-|
C#|-6--1-|

Other versions of Keeping Secrets

Keeping secrets acousticTabs

↓ Add and view comments below ↓

What do you think about this song and these tabs?

Add your comments, questions, rant or a thumbs up below.

Almost there ...

Sign in to get your own page with links to favourite songs and more. You are just one click away...

Login with Facebook Login with Google