Log in

One click and you are in

Login with Facebook Login with Google

Why sign up and log in

Guitar Tabs Explorer
Mallory Knox guitar tabs for Hello

Guitar tabs

INTRO

Electric 1

E|--------|
B|--------|
G|-8-10-5-|
D|-x-x--x-|
A|-6-8--3-|
D|--------|

Electric 2

E|-------|
B|-------|
G|-------|
D|-6-8-3-|
A|-6-8-3-|
D|-6-8-3-|


VERSE

Electric 1

E|--------------------------------|
B|--------------------------------|
G|-5858---x3-5858-7-5858---5858-8-|
D|------8----------------8--------|
A|--------------------------------|
D|--------------------------------|

Electric 2

E|--------------------------------------------|
B|--------------------------------------------|
G|--------------------------------------------|
D|-101010-6-101010-10101010----333-6-101010-8-|
A|-101010-6-101010-10101010-x2-333-6-101010-8-|
D|-101010-6-101010-10101010----333-6-101010-8-|

PRE-CHORUS

Electric 1+2

E|--------|
B|--------|
G|--------|
D|-10-6-8-|
A|-10-6-8-|
D|-10-6-8-|


CHORUS

Electric 1

E|-----------  ---------------------------------------------------|
B|-----------  --16-------16-------16----15-------15-------15-----|
G|-8-7-12-10-  -----15-------15-------------15-------15-----------|
D|-x-x-x--x--  --------13-------13----13-------13-------13-----13-|
A|-6-5-10-8--  ---------------------------------------------------|
D|-----------  ---------------------------------------------------|

Electric 2

E|----------|
B|----------|
G|----------|
D|-6-5-10-8-|
A|-6-5-10-8-|
D|-6-5-10-8-|

POST (part 1)

Electric 1+2

E|--------|
B|--------|
G|--------|
D|-10-6-8-|
A|-10-6-8-|
D|-10-6-8-|

POST (part 2)

Electric 1

E|----|
B|----|
G|-20-|
D|-x--|
A|-18-|
D|----|


VERSE (part 1)

Electric 1
(same pattern as E2)
E|-------------------|
B|-------------------|
G|-17-15----13-10----|
D|-x--x--x2-x--x--x2-|
A|-15-13----11-8-----|
D|-------------------|

Electric 2

E|---------------------------------------|
B|---------------------------------------|
G|---------------------------------------|
D|-1010101010101010-88----66666666-33----|
A|-1010101010101010-88-x2-66666666-33-x2-|
D|-1010101010101010-88----66666666-33----|


VERSE (part 2)

Electric 1
(fast palm mute)
E|---|
B|---|
G|-5-|
D|-x-|
A|-3-|
D|---|

Electric 2

E|---------------------------------------|
B|---------------------------------------|
G|---------------------------------------|
D|-1010101010101010-88----66666666-33----|
A|-1010101010101010-88-x2-66666666-33-x2-|
D|-1010101010101010-88----66666666-33----|


PRE-CHORUS

Electric 2

E|------|
B|------|
G|------|
D|-10-8-|
A|-10-8-|
D|-10-8-|


CHORUS


BRIDGE (part 1)

Electric 1

E|------------|
B|------------|
G|-8-10-12-15-|
D|-x-x--x--x--|
A|-6-8--10-13-|
D|------------|

Electric 2

E|-----------|
B|-----------|
G|-----------|
D|-5-6-10-12-|
A|-5-6-10-12-|
D|-5-6-10-12-|


BRIDGE (part 2)

Electric 1

E|--------------------------------|
B|----16-------16-----15-------15-|
G|-------15--------------15-------|
D|-13-------13-----13-------13----|
A|--------------------------------|
D|--------------------------------|


CHORUS


OUTRO

Electric 1+2

E|------------|
B|------------|
G|------------|
D|-10101010-6-|
A|-10101010-6-|
D|-10101010-6-|

↓ Add and view comments below ↓

What do you think about this song and these tabs?

Add your comments, questions, rant or a thumbs up below.

Almost there ...

Sign in to get your own page with links to favourite songs and more. You are just one click away...

Login with Facebook Login with Google