Log in

One click and you are in

Login with Facebook Login with Google

Why sign up and log in

Guitar Tabs Explorer
Mallory Knox guitar chords for Falling in love

Guitar chords with lyrics

Intro: (palm muted power chords)
A chord diagramA majorA     A chord diagramE MajorE


Verse 1: (Palm muted power chords)
A chord diagramA majorA                                                 A chord diagramE MajorE
Hate how I feel about love when I think that I've lost it,
              A chord diagramA majorA                                       A chord diagramE MajorE
Like when I'm lying in bed contemplating if I've ever felt it
                    A chord diagramA majorA
It's all gone wrong
                                                 A chord diagramE MajorE
And it's worse than the way that it felt when it started
     E/C#           A chord diagramA majorA
Do I save it this time?
               A chord diagramE MajorE
Or leave it behind?
Pre-Chorus:
        A chord diagramC# minorC#m              A chord diagramBB        A chord diagramA majorA
I lit a match to let the light in
            A chord diagramC# minorC#m             A chord diagramBB        A chord diagramA majorA
But all the demons tried to sneak in
          A chord diagramC# minorC#m          A chord diagramBB        A chord diagramA majorA
And I was powerless to stop them
          A chord diagramBB          A chord diagramC# minorC#m   A chord diagramBB     A chord diagramA majorA
I kept on falling in love, love, love
          A chord diagramBB          A chord diagramA majorA
I kept on falling in love


Riff for this section. You can play this 2 ways:

E|-------|-------|----------------|
B|-------|-------|----------------|
G|-------|-------|----------------|  x4
D|----4--|----4--|-----4-------4--|
A|--7---7|--7---7|---7---7---7---4|
E|9------|7------|5--------5------|

----OR------

E|-------|-------|----------------|
B|-------|-------|----------------|
G|-------|-------|----------------|  x4
D|--2-4-2|--2-4-2|--2-4-2----2-4-2|
A|4------|2------|0-------0-------|
E|-------|-------|----------------|

Chorus:
                     A chord diagramA majorA
I kept on falling in love
                     A chord diagramA majorA
I kept on falling in love
                     A chord diagramA majorA   A chord diagramE MajorE (let last chord ring)
I kept on falling in love


Riff:
E|---|-----------|
B|--5|5-5-5-4-5-7|
G|4--|-----------|   x3
D|---|-----------|
A|---|-----------|
E|---|-----------|

Interlude: (palm muted chords)
              A chord diagramA majorA
Ooo ooo ooo...
           A chord diagramE MajorE
Ooo ooo ooo...


Verse 2: (Played in a similar way to verse 2 but guitar 2 accents at the beginning of every chords change.)
A chord diagramA majorA                                                A chord diagramE MajorE
Cleansing my mind, yeah at times, can be frankly exhausting
        A chord diagramA majorA                                                A chord diagramE MajorE
As I go over the lies that I've told in my head and it's haunting
                 A chord diagramA majorA
This broken soul
                                        A chord diagramE MajorE
A chord diagramA majorA body of youth when my heart should be beating
         A chord diagramC# minorC#m             A chord diagramA majorA
But it's breaking in two
               A chord diagramE MajorE (build up from here)
But what can I do?


Pre-Chorus:
        A chord diagramC# minorC#m              A chord diagramBB        A chord diagramA majorA
I lit a match to let the light in
            A chord diagramC# minorC#m             A chord diagramBB        A chord diagramA majorA
But all the demons tried to sneak in
          A chord diagramC# minorC#m          A chord diagramBB        A chord diagramA majorA
And I was powerless to stop them
          A chord diagramBB          A chord diagramC# minorC#m   A chord diagramBB     A chord diagramA majorA
I kept on falling in love, love, love
          A chord diagramBB          A chord diagramA majorA
I kept on falling in love


Riff for this section. You can play this 2 ways:
E|-------|-------|----------------|
B|-------|-------|----------------|
G|-------|-------|----------------|  x4
D|----4--|----4--|-----4-------4--|
A|--7---7|--7---7|---7---7---7---4|
E|9------|7------|5--------5------|

----OR------

E|-------|-------|----------------|
B|-------|-------|----------------|
G|-------|-------|----------------|  x4
D|--2-4-2|--2-4-2|--2-4-2----2-4-2|
A|4------|2------|0-------0-------|
E|-------|-------|----------------|


Chorus:
                     A chord diagramA majorA
I kept on falling in love
                     A chord diagramA majorA
I kept on falling in love
                     A chord diagramA majorA   A chord diagramE MajorE
I kept on falling in love


Riff:
E|---|-----------|
B|--5|5-5-5-4-5-7|
G|4--|-----------|   x3
D|---|-----------|
A|---|-----------|
E|---|-----------|


Verse 3:  (palm muted chords)
A chord diagramA majorA                                                  A chord diagramE MajorE
Drinking away all the guilt that I'm feeling from last night
                 A chord diagramA majorA                                               A chord diagramE MajorE
And while you're hoping that mark on your neck happened during a fist fight
              A chord diagramA majorA
It's all gone wrong
                                        A chord diagramE MajorE
I'm so sick of the man that I am, I'm a drunk, I'm a liar
  A chord diagramC# minorC#m
A chord diagramA majorA waste of desire
     A chord diagramA majorA
It's true
                        A chord diagramE MajorE
But what the fuck can I do?


Pre-Chorus:
        A chord diagramC# minorC#m              A chord diagramBB        A chord diagramA majorA
I lit a match to let the light in       (match and let the light in)
            A chord diagramC# minorC#m             A chord diagramBB        A chord diagramA majorA
But all the demons tried to sneak in    (demons tried to sneak in)
          A chord diagramC# minorC#m          A chord diagramBB        A chord diagramA majorA
And I was powerless to stop them
          A chord diagramBB          A chord diagramC# minorC#m   A chord diagramBB     A chord diagramA majorA
I kept on falling in love, love, love
          A chord diagramBB          A chord diagramA majorA
I kept on falling in love


Riff for this section. You can play this 2 ways:
E|-------|-------|----------------|
B|-------|-------|----------------|
G|-------|-------|----------------|  x4
D|----4--|----4--|-----4-------4--|
A|--7---7|--7---7|---7---7---7---4|
E|9------|7------|5--------5------|

----OR------

E|-------|-------|----------------|
B|-------|-------|----------------|
G|-------|-------|----------------|  x4
D|--2-4-2|--2-4-2|--2-4-2----2-4-2|
A|4------|2------|0-------0-------|
E|-------|-------|----------------|


Chorus:
                     A chord diagramA majorA
I kept on falling in love
                     A chord diagramA majorA
I kept on falling in love
                     A chord diagramA majorA   A chord diagramE MajorE
I kept on falling in love


Riff:
E|---|-----------|
B|--5|5-5-5-4-5-7|
G|4--|-----------|   x3
D|---|-----------|
A|---|-----------|
E|---|-----------|


Bridge:
A chord diagramA majorA
'Cause these cigarettes and heartache
A chord diagramC# minorC#m                      A chord diagramE MajorE
Are such a tragic little truth
A chord diagramA majorA
If I give up my addiction
A chord diagramC# minorC#m                       A chord diagramE MajorE
Then I'll be giving up on you
                           A chord diagramA majorA
(I kept on falling in love)

'Cause these cigarettes and heartache

(I kept on falling in love)
A chord diagramC# minorC#m                      A chord diagramE MajorE
Are really all I've ever had

(I kept on falling in love)
A chord diagramA majorA
If I give up my addiction

(I kept on falling in love)
A chord diagramC# minorC#m                       A chord diagramE MajorE
Then I'll be giving up on you


Solo:
  A chord diagramA majorA                       A chord diagramE MajorE                 A chord diagramA majorA                       A chord diagramE MajorE
E|------------------------7--|-------------|------------------------7--|11-12-14-14|
B|9-9-7-9-9p7h9-9p7h9-9p7---9|7------------|9-9-7-9-9p7h9-9p7h9-9p7---9|-----------|
G|---------------------------|--9p8-8-9-8--|---------------------------|-----------|
D|---------------------------|------------9|---------------------------|-----------|
A|---------------------------|-------------|---------------------------|-----------|
E|---------------------------|-------------|---------------------------|-----------|

  A chord diagramA majorA                       A chord diagramE MajorE    E/C#         A chord diagramA majorA                       A chord diagramE MajorE
E|------------------------7--|-------------|------------------------7--|
B|9-9-7-9-9p7h9-9p7h9-9p7---9|7------------|9-9-7-9-9p7h9-9p7h9-9p7---9|
G|---------------------------|--9p8-8-9-8--|---------------------------|
D|---------------------------|------------9|---------------------------|
A|---------------------------|-------------|---------------------------|
E|---------------------------|-------------|---------------------------|


Outro: (Palm muted chords)
                     A chord diagramA majorA
I kept on falling in love
                     A chord diagramE MajorE
I kept on falling in love
                     A chord diagramA majorA
I kept on falling in love
                     A chord diagramE MajorE
I kept on falling in love


************************************

| h  Hammer-on
| p  Pull-off

↓ Add and view comments below ↓

What do you think about this song and these chords?

Add your comments, questions, rant or a thumbs up below.

Almost there ...

Sign in to get your own page with links to favourite songs and more. You are just one click away...

Login with Facebook Login with Google