Log in

One click and you are in

Login with Facebook Login with Google

Why sign up and log in

Guitar Tabs Explorer
Mallory Knox guitar tabs for Creeper

Guitar tabs

INTRO (part 1)

Electric 1
Clean
E|-------------------------------------4---4---2---2---5---5---4---4---|
B|---5---5---4---4---4---4---2---2-------------------------------------|
G|------------------------------------------------------------------x2-|
D|---------------------------------x2----------------------------------|
A|-4---4---4---4---4---4---4---4------4---4---4---4---4---4---4---4----|
D|---------------------------------------------------------------------|
INTRO (part 2)

Electric 1
E|--4---4---2---2---5---5---4---4---|
B|----------------------------------|
G|----------------------------------|
D|----------------------------------|
A|-4---4---4---4---4---4---4---4----|
D|----------------------------------|

Electric 2

E|----------|
B|----------|
G|----------|
D|-11-9-6-7-|
A|-11-9-6-7-|
D|-11-9-6-7-|


INTRO (part 3)

Electric 2

E|-------------------------|
B|-------------------------|
G|-------------------------|
D|-11-14-11-10-11-14-14-16-|
A|-11-14-11-10-11-14-14-16-|
D|-11-14-11-10-11-14-14-16-|

INTRO (part 4)

Electric 1

E|-12-|
B|-14-|
G|-13-|
D|----|
A|----|
D|----|

Electric 2

E|-------------------------|
B|-------------------------|
G|-------------------------|
D|-11-14-11-10-11-14-14-16-|
A|-11-14-11-10-11-14-14-16-|
D|-11-14-11-10-11-14-14-16-|


VERSE

Electric 1
Clean
E|----------------------------------------------------|
B|--------------------------------12-9----------------|
G|-13-11-11-13-9-------13-11-9-11------9h11r9---------|
D|---------------13-11------------------------13-9h11-|
A|----------------------------------------------------|
D|----------------------------------------------------|

Electric 2
Clean
E|-----------------|
B|-----------------|
G|-----------------|
D|-11-9-6-7-11-9-7-|
A|-11-9-6-7-11-9-7-|
D|-11-9-6-7-11-9-7-|


PRE-CHORUS

Electric 1
(repeatedly)
E|--------|
B|--------|
G|--------|
D|--------|
A|----7-9-|
D|-11-----|

Electric 2

E|--------|
B|--------|
G|--------|
D|-11-9-7-|
A|-11-9-7-|
D|-11-9-7-|


CHORUS

Electric 1
(not sure about this)
E|-------------------|
B|-14----14----------|
G|----13----13-------|
D|-------------11-11-|
A|-------------------|
D|-------------------|

Electric 2

E|------------|
B|------------|
G|------------|
D|-11-9-4-7-9-|
A|-11-9-4-7-9-|
D|-11-9-4-7-9-|


INTRO (part 3+4)


VERSE

Electric 1
Clean (each note is played more than once)
E|----------------------------------------------------|
B|--------------------------------12-9----------------|
G|-13-11-11-13-9-------13-11-9-11------9h11r9---------|
D|---------------13-11------------------------13-9h11-|
A|----------------------------------------------------|
D|----------------------------------------------------|

Electric 2
Clean
E|-----------------|
B|-----------------|
G|-----------------|
D|-11-9-6-7-11-9-7-|
A|-11-9-6-7-11-9-7-|
D|-11-9-6-7-11-9-7-|


PRE-CHORUS


CHORUS


SOLO

Electric 1

E|----------------------------------------------------------|
B|----------------------------------------------------------|
G|-10-11-13-9-8------10-x2-13--13--13--13---11--11--11--11--|
D|--------------11-6---------11--11--11--11---9---9---9---9-| x2
A|----------------------------------------------------------|
D|----------------------------------------------------------|

Electric 2

E|---------|
B|---------|
G|---------|
D|-11-9-15-|
A|-11-9-15-|
D|-11-9-15-|

↓ Add and view comments below ↓

What do you think about this song and these tabs?

Add your comments, questions, rant or a thumbs up below.

Almost there ...

Sign in to get your own page with links to favourite songs and more. You are just one click away...

Login with Facebook Login with Google