Log in

One click and you are in

Login with Facebook Login with Google

Why sign up and log in

Guitar Tabs Explorer
Mallory Knox guitar tabs for Beggars

Guitar tabs

INTRO (part 1)

Electric 1
(picked)       (picking pattern)
E|----|          |-----------|
B|-11-|          |-x-------x-|
G|-11-|          |---x---x---|
D|-13-| ------>  |-----x-----|
A|----|          |-----------|
D|----|          |-----------|
INTRO (part 2)

Electric 1
(listen to song for pattern)
E|----------------|
B|----------------|
G|-15-16-13-15-13-|
D|-x--x--x--x--x--|
A|-13-14-11-13-11-|
D|----------------|

Electric 2

E|-----------|
B|-----------|
G|-----------|
D|-8-9-6-8-6-|
A|-8-9-6-8-6-|
D|-8-9-6-8-6-|


INTRO (part 3)

Electric 1
(listen to song for pattern)
E|----------------------|
B|----------------------|
G|-18-16-15-16-------18-|
D|-x--x--x--x--------x--|
A|-16-14-13-14-------16-|
D|----------------------|

Electric 2

E|------------------|
B|------------------|
G|------------------|
D|-4-6-8-9--9-6-4-1-|
A|-4-6-8-9--9-6-4-1-|
D|-4-6-8-9--9-6-4-1-|

VERSE (part 1)

Electric 2
(listen to song for pattern)
E|---------|
B|---------|
G|---------|
D|-1-6-4-1-|
A|-1-6-4-1-|
D|-1-6-4-1-|

Electric 1
(triplets)
E|-----|
B|-----|
G|-----|
D|-111-|
A|-111-|
D|-111-|


VERSE (part 2)

Electric 1

E|----------------------------------------------------|
B|-------------11-9--------------------12-12-11-------|
G|-------11---------11-----------11-------------11----|
D|-13-13----13---------13--13-13----13-------------13-|
A|----------------------------------------------------|
D|----------------------------------------------------|

Electric 2

E|-------|
B|-------|
G|-------|
D|-1-6-4-|
A|-1-6-4-|
D|-1-6-4-|


PRE-CHORUS

Electric 2

E|---------------------------|
B|---------------------------|
G|---------------------------|
D|---------------11-11-11-11-|
A|---------------11-11-11-11-|
D|-12-13-9-12-13-11-11-11-11-|


CHORUS

Electric 1

E|------------------------------------|
B|-9-----------------------9----------|
G|---11----x4--11-10----x2---11----x2-|
D|------11-----------10---------11----|
A|------------------------------------|
D|------------------------------------|

Electric 2

E|-----------|
B|-----------|
G|-----------|
D|-4-11-9-11-|
A|-4-11-9-11-|
D|-4-11-9-11-|

POST

Play INTRO (part 2) then at the end of it add...

Electric 1

E|----------------|
B|----------------|
G|-15-13/15-13-11-|
D|-x--x--x--x--x--|
A|-13-11/1311-9--|
D|----------------|

Electric 2

E|-------|
B|-------|
G|-------|
D|-8-6-4-|
A|-8-6-4-|
D|-8-6-4-|


VERSE (part 1)

Electric 1
Delay (repeatedly)
E|-------------|
B|-11----11----|
G|----13-------|
D|----------13-|
A|-------------|
D|-------------|

Bass


VERSE (part 2)

Electric 1
Delay (repeatedly)
E|-------------|
B|-11----11----|
G|----13-------|
D|----------13-|
A|-------------|
D|-------------|

Electric 2

E|----------|
B|----------|
G|----------|
D|-1-4-9-11-|
A|-1-4-9-11-|
D|-1-4-9-11-|


PRE-CHORUS


CHORUS


BRIDGE (part 1)

Electric 2
(listen to song for pattern)
E|----------|
B|----------|
G|----------|
D|-13-13-11-|
A|-13-13-11-|
D|-13-13-11-|


BRIDGE (part 2)

Electric 1

E|---------------------------------------|
B|-16-----------14-----------------------|
G|----15----x4-----13----x2--13-11-10-x2-|
D|-------13-----------11-----------------|
A|---------------------------------------|
D|---------------------------------------|

Electric 2

E|--------|
B|--------|
G|--------|
D|-9-1-11-|
A|-9-1-11-|
D|-9-1-11-|

↓ Add and view comments below ↓

What do you think about this song and these tabs?

Add your comments, questions, rant or a thumbs up below.

Almost there ...

Sign in to get your own page with links to favourite songs and more. You are just one click away...

Login with Facebook Login with Google