Log in

One click and you are in

Login with Facebook Login with Google

Why sign up and log in

Guitar Tabs Explorer
Knower bass tabs for Butts tits money

Bass tabs

Tuning: Standard (E A D G)

Main Part: (12 times)

G|---------------------------7---------------------------|
D|-------------------7--9--------------------------------|
A|--------5--7--9---------------------8--11---------7--10|
E|--7-7----------------------------9------------8--------|
Translation: (4 times)

G|-------------------------|
D|-------------------------|
A|-------------------------|
E|--7-7-7-7-7-7------------|

Mid Part: (4 times)

G|-------------------------|
D|-------------------------|
A|----------------4--------|
E|--2-1-3---2-1-3----------|

Main Part: (12 times)

G|---------------------------7---------------------------|
D|-------------------7--9--------------------------------|
A|--------5--7--9---------------------8--11---------8--10|
E|--7-7----------------------------9------------8--------|

Translation: (4 times)

G|-------------------------|
D|-------------------------|
A|-------------------------|
E|--7-7-7-7-7-7------------|

Mid Part: (4 times)

G|-------------------------|
D|-------------------------|
A|-------------------------|
E|--1-1-2---1-1-2--0-------|


Outro Part 1: (4 times)

G|-------------------------|
D|-------------------------|
A|-------------------------|
E|--1-1-2---1-1-2--4-3-4-3-|
         (improvise)

long break


Outro: (many times)

G|-------------------------|
D|-----4-4-4------5-5-5----|
A|-4-4--------5-5----------|
E|-------------------------|

Almost there ...

Sign in to get your own page with links to favourite songs and more. You are just one click away...

Login with Facebook Login with Google