Log in

One click and you are in

Login with Facebook Login with Google

Why sign up and log in

Guitar Tabs Explorer
Mark Knopfler tabs for Boom  like that

Guitar tabs with lyrics

Title:  Boom, Like That
Tab by: matagu@o2.pl

Full tone down (d g c f a d) - I was tuned to mark guitar, I don't know
what tuning he is using, anyway, should be ok with

that.

Main melody (with delay) - it isn't exactly that what Mark plays, but
just play sth aroud that chords ;)
  a        c        d        f        a        c        f        f
d|--------|--------|--------|--------|--------|--------|--------|1------|
a|--------|--------|--------|----1---|--------|--------|----1---|1------|
f|----2--2|----2--2|----2--2|-2----2-|----2--2|----2--2|--2-----|-------|
c|--2-----|-2------|--0-----|3-3----3|--2-----|-2------|3------3|-------|
g|0-------|3-3-----|0-------|--------|0-------|3-3-----|--------|---3-2-|
d|--------|--------|--------|--------|--------|--------|--------|-------|
Play that above two times before Mark start singing "I'm going to San Bernardino..." and on and on :), until "Or my name is

not Kroc" line. Then the other guitar joins with this:
d|0--------|0--------|2--------|1--------|
a|1--------|1--------|3--------|1--------|
f|2--------|0--------|2--------|2--------|
c|2--------|2--------|0--------|3--------|
g|0--------|3--------|---------|---------|
d|---------|---------|---------|---------|
pm.         .         .         .
d|0--------|0--------|1--------|---------|
a|1--------|1--------|1--------|---------|
f|2--------|0--------|2--------|---------|
c|2--------|2--------|3--------|---------|
g|0--------|3--------|---------|---------|
d|---------|---------|---------|---------|
pm.         .
d|0--------|0--------|2--------|1--------|0--------|
a|1--------|1--------|3--------|1--------|1--------|
f|2--------|0--------|2--------|2--------|2--------|
c|2--------|2--------|0--------|3--------|2--------|
g|0--------|3--------|---------|---------|0--------|
d|---------|---------|---------|---------|---------|
pm.         .         .         .         .

"Krok style - Boom, like that" after that a little fill-in:
d|--------------------------------------
a|8--p-5--------------------------------
f|-------5----7-------------------------
c|----------------7p5---------5---------
g|----------------------5-7-----7---3---
d|--------------------------------------

Then the second verse "The folks line up..."


Along with line "Oughtta be one of these in every town" play this:
d|--------------------------
a|------10h12p10p8---10-----
f|--------------------------
Same as "Wham, bam, you don't wait long, Shake, fries, patty, your gone",
there are few sound before this but I couldn't

figure them out.


Again play "Or my name is not Kroc" part and "Kroc style" fill-in. And here
we go ^__^ - solo 1st! Sorry for no timing, but

I'm too lazy to write it down, it's easy anyway.
d|--------------------------------------------
a|-----------------------8h10p8-5-------------
f|--------------------------------7-5---------
c|--------7---5----b(7)---------------7-(5)---
g|-----/7-------------------------------------
d|--------------------------------------------

d|-------------------------------------
a|-------------------------------------
f|---------------------------5-5-5-----
c|(5)--5-77--5-7---5-7---5-7-------7---
g|---7-----7-----7-----7---------------
d|-------------------------------------

d|/8----7------------------------------------
a|----------8/10-----8h10p8---10--8-5--------
f|------------------------------------5------
c|--------------------------------------7----
g|-------------------------------------------
d|-------------------------------------------

  agp        agp
d|___--------__--------------------
a|--8---------8--------------------
f|-X--7-b(9)-X--9-7b(9)r7-9-5--7---
c|7------------------------------7-
g|---------------------------------
d|---------------------------------


Whoa! You made it :), now next verse "You gentlemen ought to expand..."
Under "You're going to need a helping hand now"
play sth like this:
d|----------------------
a|8-5---5---------------
f|----7---5-7---5---/---
c|----------------------
g|----------------------
d|----------------------
And right after "So gentlemen well what about me " Play
d|--5-----5-------------------
a|--5-----5-------------------
f|2-----2-----5--------(2)----
c|----------------------------
g|----------------------------
d|----------------------------


Next one is well-known "Kroc style" part. And here we go! 2nd solo!
d|-------------------------------------
a|8-b-(10)10-8-----10--8-5-------------
f|-------------------------5-----------
c|----------------------------5h7------
g|-------------------------------------
d|-------------------------------------

d|----------8--------------------------------------
a|----8---8----10----10--12b-(13)r-12--10----------
f|/9----9----------------------------------9-12----
c|-------------------------------------------------
g|-------------------------------------------------
d|-------------------------------------------------

d|------------------------------------------
a|10--8-5-----------------------------------
f|--------5-------4---------5b(6)-7-5-------
c|------------5h7---7---5h7-----------5-7---
g|------------------------------------------
d|------------------------------------------


Again next verse and some licks above it, but I couldn't hear it clearly...
"I got the name but I need the town.." Play sth

like:
d|------------------------------
a|----------------10-10---------
f|------5-5h7p5---9--9--5h7p5---
c|--5-7-7-------7---------------
g|7-----------------------------
d|------------------------------
"...make a dream reality"
d|----8--8--------
a|----10-10-/10---
f|7-9-------------
c|----------------
g|----------------
d|----------------
"...put a hose in their mouth"
d|8p7--------------
a|----10p8---/10---
f|-----------------
c|-----------------
g|-----------------
d|-----------------


And three licks above "Kroc style" part.
d|-8---------------------
a|X--10--10--8h10--10----
f|__---------------------
c|agp--------------------
g|-----------------------
d|-----------------------
                                 agp
d|-------------------------------___------
a|12-12-12b(13)r(12)-12-10--------12-10---
f|---------------------------12--X--------
c|----------------------------------------
g|----------------------------------------
d|----------------------------------------

d|------------------------------------------
a|12b(13)r(12)-10------10-13-10----10---\---
f|------------------12----------12----------
c|------------------------------------------
g|------------------------------------------
d|------------------------------------------


And the 3rd one...
d|------7-8--7------------------------------
a|8b(10)--------10--8-----5h8--5------------
f|--------------------9-----------7--5------
c|-------------------------------------7----
g|------------------------------------------
d|------------------------------------------

d|-------------------------7b(8)r7------------
a|-------------------8b(10)---------10--8-----
f|9--7-9--7-9-5---------------------------9---
c|---------------7----------------------------
g|--------------------------------------------
d|--------------------------------------------

d|5--7h8p7-5h7p5-------------------------------------------
a|---------------8-----------------------------------------
f|-----------------5------------------------------5--------
c|-------------------7------5-7---5-7---5-7---5-7---5-7----
g|------------------------7-----7-----7-----7--------------
d|---------------------------------------------------------

d|-------------------------------------
a|agp----------------------------------
f|__-----5-----------------5---5-7-----
c|-5-7------7--5------5-7----7-----7---
g|7---------------7--------------------
d|-------------------------------------

           fade out  agp
d|----------------------__------------------------------
a|8-b(10)-10--5----------10--8--/10---------------------
f|---------------7-5----X------------------7h9p7--------
c|-------------------7----------------7h10-------10p7---
g|------------------------------------------------------
d|------------------------------------------------------

d|-------------------8-----------
a|8-10---8-10---8-10---10-8-10---
f|-------------------------------
c|-------------------------------
g|-------------------------------
d|-------------------------------

d|------------------------------------
a|8b(10)-r(8)b(10)-8b(10)-------------
f|------------------------7h9p7p5-----
c|--------------------------------7---
g|------------------------------------
d|------------------------------------

d|----------------------------------------------------8------
a|pb10-r(8)b(10)-(8)b(10)r(8)-5-------8---10---8-10-8---10---
f|------------------------------5----------------------------
c|--------------------------------7--------------------------
g|-----------------------------------------------------------
d|-----------------------------------------------------------
I couldn't heard any more, but there are maybe 2 notes after that. Anyway,
hope you like it, and ah, sorry for my english :).

That's all folks!

Almost there ...

Sign in to get your own page with links to favourite songs and more. You are just one click away...

Login with Facebook Login with Google