Log in

One click and you are in

Login with Facebook Login with Google

Why sign up and log in

Guitar Tabs Explorer
Hayley Kiyoko bass tabs for Demons

Bass tabs

Tuning: Standard (E A D G)

🎸 Intro:

G|-----------------4h6p4-----------------------------------------------------|
D|------------6----------6-4-----------6----6-4------------------------------|
A|--4----4-7-----------------0----0-6-----------7----------------------------|
E|------------------------------------------------7--------------------------|
🎸 Verse 1:

G|-----------------4h6p4-----------------------------------------------------|
D|------------6----------6-4-----------6----6-4------------------------------|
A|--4----4-7-----------------0----0-6-----------7----------------------------|
E|------------------------------------------------7--------------------------|

G|-----------------4h6p4-----------------------------------------------------|
D|------------6----------6-4-----------6----6-4------------------------------|
A|--4----4-7-----------------0----0-6-----------7----------------------------|
E|------------------------------------------------7--------------------------|


🎸 Pre-Chorus:

G|---------------------------------------------------------------------------|
D|---------------------------------------------------------------------------|
A|--------------------7------------------------------------------------------|
E|--7--------9-------------5-------------------------------------------------|


🎸 Chorus:

G|-----------------4h6p4-----------------------------------------------------|
D|------------6----------6-4-----------6----6-4------------------------------|
A|--4----4-7-----------------0----0-6-----------7----------------------------|
E|------------------------------------------------7--------------------------|

G|-----------------4h6p4-----------------------------------------------------|
D|------------6----------6-4-----------6----4--------------------------------|
A|--4----4-7-----------------0----0-6---------7-6----------------------------|
E|------------------------------------------------7--------------------------|

Post-🎸 Chorus:

G|-----------------4h6p4-----------------------------------------------------|
D|------------6----------6-4-----------6----4--------------------------------|
A|--4----4-7-----------------0----0-6---------7-6----------------------------|
E|------------------------------------------------7--------------------------|


🎸 Verse 2:

G|-----------------4h6p4-----------------------------------------------------|
D|------------6----------6-4-----------6----6-4------------------------------|
A|--4----4-7-----------------0----0-6-----------7----------------------------|
E|---------------------------------------------------------------------------|

"Burning in the lava..."
G|-------------------------4h6p4---------------------------------------------|
D|--6-4---------------6----------6-4-----------6----6-4----------------------|
A|------7-4-4----4-7-----------------0----0-6-----------7--------------------|
E|---------------------------------------------------------------------------|


🎸 Pre-Chorus:

G|---------------------------------------------------------------------------|
D|---------------------------------------------------------------------------|
A|--------------------7------------------------------------------------------|
E|--7--------9-------------5-------------------------------------------------|


🎸 Chorus:

G|-----------------4h6p4-----------------------------------------------------|
D|------------6----------6-4-----------6----6-4------------------------------|
A|--4----4-7-----------------0----0-6-----------7----------------------------|
E|------------------------------------------------7--------------------------|

G|-----------------4h6p4-----------------------------------------------------|
D|------------6----------6-4-----------6----4--------------------------------|
A|--4----4-7-----------------0----0-6---------7-6----------------------------|
E|------------------------------------------------7--------------------------|


🎸 Bridge:

G|---------------------------------------------------------------------------|
D|---------------------------------------------------------------------------|
A|---------------------------------------------------------------------------|
E|--7-7----9-9----5-5------------7-7----9-9----5-5---------------------------|

G|-----------------4h6p4-----------------------------------------------------|
D|------------6----------6-4-----------6-------------------------------------|
A|--4----4-7-----------------0----0-6----------------------------------------|
E|---------------------------------------------------------------------------|


🎸 Chorus:

G|-----------------4h6p4-----------------------------------------------------|
D|------------6----------6-4-----------6----6-4------------------------------|
A|--4----4-7-----------------0----0-6-----------7----------------------------|
E|------------------------------------------------7--------------------------|

G|-----------------4h6p4-----------------------------------------------------|
D|------------6----------6-4-----------6----6-4------------------------------|
A|--4----4-7-----------------0----0-6-----------7----------------------------|
E|------------------------------------------------7--------------------------|


🎸 Outro:

G|-----------------4h6p4-----------------------------------------------------|
D|------------6----------6-4-----------6----6-4------------------------------|
A|--4----4-7-----------------0----0-6-----------7----------------------------|
E|------------------------------------------------7--------------------------|

G|-----------------4h6p4-----------------------------------------------------|
D|------------6----------6-4-----------6----6-4------------------------------|
A|--4----4-7-----------------0----0-6-----------7----------------------------|
E|------------------------------------------------7--------------------------|


************************************

| h  Hammer-on
| p  Pull-off

************************************

Almost there ...

Sign in to get your own page with links to favourite songs and more. You are just one click away...

Login with Facebook Login with Google