Log in

One click and you are in

Login with Facebook Login with Google

Why sign up and log in

Guitar Tabs Explorer
Kisschasy bass tabs for Real and untouched

Bass tabs with lyrics

Title: Real and Untouched
Album: Hymns For The Non-Believer


DISCLAIMER: I have never touched a bass. Ever. I don't play bass,
but I would love to someday, when I get my hands on one. I'm not
very good at hearing the bass, but I'm pretty confident that this
tab is almost right, if not 100% correct. Do leave a comment!
Tuning: Half step down.

Everything's in order, and they're mainly repeated riffs,
so just listen to the music for the timing/strumming/whatnots.


Intro/Verse:

Gb|-----------------------------------------|
Db|-------------------------7-7-7-7---------| x5
Ab|-10-10-10-10---------------------7-7-9-9-|
Eb|-------------10-10-10-10-----------------|

Gb|-----------------------------------------|
Db|-------------------------7-7-7-7-7-7-7-7-| x1
Ab|-10-10-10-10-----------------------------|
Eb|-------------10-10-10-10-----------------|


Chorus Riff:
Gb|------------------|
Db|-9-9--------------|
Ab|-------10-10------|  x3, then Ab|-7-7-7-7-7-7-7-7-|
Eb|---------------10-|

Back to Verse riff:

Gb|-----------------------------------------|
Db|-------------------------7-7-7-7---------| x3
Ab|-10-10-10-10---------------------7-7-9-9-|
Eb|-------------10-10-10-10-----------------|

Gb|-----------------------------------------|
Db|-------------------------7-7-7-7-7-7-7-7-| x1
Ab|-10-10-10-10-----------------------------|
Eb|-------------10-10-10-10-----------------|

Chorus riff:
Gb|------------------|
Db|-9-9--------------|
Ab|-------10-10------|  x3, then Ab|-7-7-7-7-7----7-9-|
Eb|---------------10-|      Eb|-----------10-----|

Gb|------------------|
Db|-9-9--------------|
Ab|-------10-10------|  x3, then Ab|-7-7-7-7-7-7-7-7-|
Eb|---------------10-|


Verse:
Gb|-----------------------------------------|
Db|-------------------------7-7-7-7---------| x5
Ab|-10-10-10-10---------------------7-7-9-9-|
Eb|-------------10-10-10-10-----------------|

Gb|-----------------------------------------|
Db|-------------------------7-7-7-7-7-7-7-7-| x1
Ab|-10-10-10-10-----------------------------|
Eb|-------------10-10-10-10-----------------|


Chorus:
Gb|------------------|
Db|-9-9--------------|
Ab|-------10-10------|  x3, then Ab|-7-7-7-7-7----7-9-|
Eb|---------------10-|      Eb|-----------10-----|

Gb|------------------|
Db|-9-9--------------|
Ab|-------10-10------|  x3, then Ab|-7-7-7-7-7----7-9-|
Eb|---------------10-|      Eb|-----------10-----|


Bridge:
Gb|----------------------------------------|
Db|----------------------7-7-7-7-7-7-7-7-7-| x4
Ab|-10-10-10-10----------------------------|
Eb|-------------10-10-10-------------------|


Verse:
Gb|-----------------------------------------|
Db|-------------------------7-7-7-7---------| x3
Ab|-10-10-10-10---------------------7-7-9-9-|
Eb|-------------10-10-10-10-----------------|

Gb|----------------------------|
Db|----------------------------| x1
Ab|-10-10-10-10----------------|
Eb|-------------10-10-10-10-5~-|


Chorus:
Gb|------------------|
Db|-9-9--------------|
Ab|-------10-10------|  x3, then Ab|-7-7-7-7-7----7-9-|
Eb|---------------10-|      Eb|-----------10-----|

Gb|------------------|
Db|-9-9--------------|
Ab|-------10-10------|  x3, then Ab|-7-7-7-7-7----7-9-|
Eb|---------------10-|      Eb|-----------10-----|


Outro:
Gb|----------------------------------------|
Db|----------------------7-7-7-7-7-7-7-7-7-| x7
Ab|-10-10-10-10----------------------------|
Eb|-------------10-10-10-------------------|

Gb|-------------------------|
Db|----------------------7~-| x1
Ab|-10-10-10-10-------------|
Eb|-------------10-10-10----|

/  slide up
\  slide down
h  hammer-on
p  pull-off
~  vibrato/let ring
< > harmonic
x  Mute note
b  bend

Almost there ...

Sign in to get your own page with links to favourite songs and more. You are just one click away...

Login with Facebook Login with Google