Search tabs and chords

Search for song, artist or band

Log in

One click and you are in

Login with Facebook Login with Google

Why sign up and log in

Guitar Tabs Explorer
Kiss guitar tabs for Strutter

Guitar tabs

id JAA22665; Sat, 12 Feb 1994 09:01:44 -0800

James,

Please post to the nevada archives.

Thanks,

Rob

Strutter

tune down 1/2 step
(note: for the intro, there are two guitars playing 2 different
parts. To start off, I play the simple riff, then I play the second
part. I'll transcibe how I play it.)

intro

------------------------------------------------
------------------------------------------------
-----------------12----------------------------
--9---9---9----12---12---7---7---7---9---
--9---9---9----10---12---7---7---7---9---
--7---7---7----------10---5---5---5---7---

-------------------------------------
-------------------------------------
-12--------------------------------
-12---12---12---12-------------
-10---12---12---12-------------
--------10---10---10-------------

verse (play the whole thing twice)

------------------------------------------------
------------------------------------------------
------------------------------------------------
--9------------------------------------7---9--
--9--------5---5---7---5---5---5---5---5--
--7---0---3---3---3---3---3---3------------

-----------------------------------------------
---------------8---8---8---8---8---7-------
---------------7---7---7---7---7---7-------
-7---7---7---9---9---9---9---9---7-------
-5---5---5------------------------------------
------------------------------------------------

------------------------------------------------
------------------------------------------------
------------------------------------------------
--9------------------------------------7---9--
--9--------5---5---7---5---5---5---5---5--
--7---0---3---3---3---3---3---3------------

------------------------------------------------
------------------------------------------------
------------------------------------------------
-7---7---7----2---2--4---2---4---2---------
-5---5---5----0---0--0---0---0---0----------
------------------------------------------------

chorus

-------------------------------------
-------------------------------------
--4---4---4------------------------
--4---4---4---------5---5---5----
--2---2---2---------5---5---5----
----------------------3---3---3----

----------------------------------
----------------------------------
---4---4---4--------------------
---4---4---4------5---5---5---
---2---2---2------5---5---5---
--------------------3---3---3---

--------------------------------------------------------
--------------------------------------------------------
--------------------------------------------------------
------4-----4-------------4----4------------4----4--
--0--2-----2--------0----2----2------0----2----2--
--------------------------------------------------------

----------------------------------------------------
-----------------------------------------------------
-------------------4---4------7----9--------------
-----------0------2---2------7----9---------------
-----2------------------------5----7---0----------
-----------------------------------------------2----

---------------------------------------------------------
---------------------------------------------------------
---------------------------------------------------------
------4-----4-------------4----4------------4----4---
--0--2-----2--------0----2----2------0----2----2---
---------------------------------------------------------

----------------------------------------------------------
----------------------------------3------3---------------
------------------4---4----------0------2---2----------
----------0------2---2----------0------0---2-----9----
----2-----------------------------------------0-----9---
-----------------------------3-----------------------7---

outro

---------------------------------------------
---------3---------3------------------------
---------0---------2-----2-----------------
---------0---------0-----2--------9-------
--------------------------0--------9--------
--3--------------------------------7--------

Other versions of Strutter

StrutterChords

Almost there ...

Sign in to get your own page with links to favourite songs and more. You are just one click away...

Login with Facebook Login with Google