Guitar Tabs Explorer
Kiss guitar tabs for She

She tab


4 / 5 [1 vote]

She tab by Kiss

Guitar tabs with lyrics

Print

I'm new to the net and am not sure how to post, so I'll forward this
to you to put in the nevada archives.

appreciate it.

Rob

"She" by Kiss

from the album Dressed To Kill

Tune down 1/2 step (Eb chord diagramEbEb, Ab chord diagramAbAb, etc.)

Intro

--------------------------------------------------------------------------
--------------------------------------------------------------------------
---------------12---12-------------------------------------------------
--5---5-------12---12-------------------3-----------------3----------
--5---5-------10---10-----3---4---5--------5---3---4-------5-----
--3---3------------------------------------------------------------------

------------------------------------------------------------------
------------------------------------------------------------------
----------12---12----------------------------------------------
-5---5---12---12------------------3-----------------3--------
-5---5---10---10----3---4---5-------5---3---4--------5---
-3---3-----------------------------------------------------------


------------------------------------------------------------------------
------------------------------------------------------------------------
------------------------------------------------------------------------
--5---5---8---5---5---10-----------------3--------5---3-------3--
--5---5---8---5---5---10---3---4---5--------5------------5------
--3---3---6---3---3---8---------------------------------------------

------------------------------------------------------------------------
------------------------------------------------------------------------
------------------------------------------------------------------------
-5---5---8---8---5---5---10----------------3-----------------3-
-5---5---8---8---5---5---10---3---4---5-------5---3---4------5
-3---3---6---6---3---3---8-----------------------------------------

Lyrics start.... She walks by moonlight.....

----------------------------------------------------------------------------
----------------------------------------------------------------------------
----------------------------------------------------------------------------
--5---5------------------3----------------------3---------5----------------
--5---5----3---4---5--------5---3---4---5--------5----5----------------
--3---3----------------------------------------------------3----------------

Lyrics start.... I know she's going...

----------------------------------------------------------------------------
----------------------------------------------------------------------------
-2---2---2---2---2---2---2-----2--2---------------------------------------------
-2---2---2---2---2---2---2-----2--2---------------------------------------------
-0---0---0---0---0---0---0-----0--0---------------------------------------------
----------------------------------------------------------------------------

Interlude

----------------------------------------------------------------------------
----------------------------------------------------------------------------
----------------------------------------------------------------------------
----------------------------------------------------------------------------
--5---5---5---3---5---5---5---3-----------------3-------5---3--------3----
--5---5------------5---5-------------3---4---5-------5------------5---------
--3---3------------3---3----------------------------------------------------

----------------------------------------------------------------------------
----------------------------------------------------------------------------
----------------------------------3----------------------------------------3
--5---5---5---3---------------------5---5---5---5---3---------------------------
--5---5------------5---3---5------------5---5------------5---3---5-------------
--3---3-----------------------------------3---3-----------------------------

Rhythm guitar right before solo

----------------------------------------------------------------------------
----------------------------------------------------------------------------
----------------------------------------------------------------------------
--8---10---5-----------------5-----------------5--------8---10------------------
--8---10---5-----------------5-----------------5--------8---10------------------
--6---8-----3---0---0---0---3---0---0---0---3---0---6---8--------------------

Outro

----------------------------------------------------------------------------
----------------------------------------------------------------------------
--9---9----------------------9---9---------------------------------------
--9---9-----------------3---9---9-----------------3---------------------
--7---7---3---4---5--------7---7---3---4---5-------------------------
----------------------------------------------------------------------------









She: by Kiss
Tab Transcription by Vince Josaphs V_Josaphs@prodigy.com

This is an easier way to play this great Kiss song.  Actually, this
was written before Kiss was even started and they were still Wicked
Lester.  Anyway...I didn't include the lyrics because I just don't
have the time and you probably already know them.  I didn't incluse
the solo either but it is similar to the solo in the Door's Five to
One. Its an easy song.



       Rhythm Figure 1

E chord diagramEE---|--------------|----------------------------||--------------------
--
B chord diagramBB---|--------------|-------0--3--0-------0--3---||--------------------
--
G chord diagramGG---|--------9--9--|--2h3-----------2h3--------*||--------9-----------
--
D chord diagramDD---|--2--2--9--9--|---------------------------*||--2--2--9--2--2-----
--
A chord diagramAA---|--2--2--7--7--|----------------------------||--2--2--7--2--2-----
--
E chord diagramEE---|--0--0--------|----------------------------||--0--0-----0--0-----
--



                                           Solo

E chord diagramEE-------|----------|--------0-----------|----------------0--3--0------
--
B chord diagramBB-------|-------0--|--3--0-----3--0--3--|----------0--3-----------3---
--
G chord diagramGG---12--|--2h3-----|--------------------|-----2h3---------------------
--
D chord diagramDD---12--|----------|--------------------|--2--------------------------
--
A chord diagramAA---10--|----------|--------------------|-----------------------------
--
E chord diagramEE-------|----------|--------------------|-----------------------------
--





E chord diagramEE---0--3--0-----0--3--0-----0-----------|--------------|--------------
--
B chord diagramBB------------3-----------3-----3--0--3--|--------------|--0--0-----0--
--
G chord diagramGG---------------------------------------|--------9--7--|--------2-----
--
D chord diagramDD---------------------------------------|--2--2--9--7--|--------------
--
A chord diagramAA---------------------------------------|--2--2--7--5--|--------------
--
E chord diagramEE---------------------------------------|--0--0--------|--------------
--



             Chorus
E chord diagramEE---3--0--|-----------------------|--------------|--------------3--|--
--
B chord diagramBB---------|-----------------------|--------------|--0--0-----0-----|--
--
G chord diagramGG---------|--2--2--2--2--2--2--2--|--------9--7--|--------2--------|--
--
D chord diagramDD---------|--2--2--2--2--2--2--2--|--2--2--9--7--|-----------------|--
--
A chord diagramAA---------|--0--0--0--0--0--0--0--|--2--2--7--5--|-----------------|--
--
E chord diagramEE---------|-----------------------|--0--0--------|-----------------|--
--





E chord diagramEE------------|--------------------------------------|-----------------
--
B chord diagramBB------------|--------------------------------------|-----------------
--
G chord diagramGG------------|--------------------------------0--2--|-----------------
--
D chord diagramDD---2--2--0--|--2--0--2--0--2--0--2--0--2--0--------|--2--2--0--2--0--
--
A chord diagramAA------------|--------------------------------------|-----------------
--
E chord diagramEE------------|--------------------------------------|-----------------
--





E chord diagramEE---------------------------------|-----------------------------------
--
B chord diagramBB---------------------------------|-----------------------------------
--
G chord diagramGG---------------------------0--2--|-----------------------------------
--
D chord diagramDD---2--0--2--0--2--0--2--0--------|--2--2-----2-----2-----2-----2-----
--
A chord diagramAA---------------------------------|--2--2--0--2--0--2--0--2--0--2--0--
--
E chord diagramEE---------------------------------|--0--0--0--0--0--0--0--0--0--0--0--
--





E chord diagramEE----------------||-------------------|-------------------|-----------
--
B chord diagramBB----------------||-------------0--3--|-------------0--3--|-----------
--
G chord diagramGG---------------*||--9--9--2h3--------|--9--9--2h3--------|-----9--9--
--
D chord diagramDD---2-----5--7--*||--9--9-------------|--9--9-------------|-----9--9--
--
A chord diagramAA---2--0--5--7---||--7--7-------------|--7--7-------------|-----7--7--
--
E chord diagramEE---0--0--3--5---||-------------------|-------------------|-----------
--





E chord diagramEE------------------|-----------|-----------|--------------------------
--
B chord diagramBB--------0-----3^--|-----------|-----------|--------------------------
--
G chord diagramGG---2h3------------|-----------|--9--9--9--|--------------------------
--
D chord diagramDD------------------|--2--2--2--|--9--9--9--|--------------------------
--
A chord diagramAA------------------|--2--2--2--|--7--7--7--|--------------------------
--
E chord diagramEE------------------|--0--0--0--|-----------|--------------------------
--





==
==      Created with TABESTRY Tab Creation Software for Windows
==
==               For more info email gse@ocsystems.com
==

==

If you have any old Anthrax tabs, please post them or e-mail them to
me.

Keep Rockin  V_Josaphs@prodigy.com

Comment this song and these guitar tabs

Do you have corrections, comments on the guitar tabs, thoughts about the song or a message to the author? Write them below.