Search tabs and chords

Search for song, artist or band

Log in

One click and you are in

Login with Facebook Login with Google

Why sign up and log in

Guitar Tabs Explorer
Kiss guitar tabs for Rock and roll all nite

Guitar tabs with lyrics

I tried different versions of all the world of this
song. But i
think this is the real, it sounds exactly like the
song and it was for me
a hard work. I will also inclued the solo that none
other version
has it got.Wait 1 week for it. Enjoy it. and feel the
lyrics too!!!
Any comments write to me!
Intro             Riff1/Verse (you play it 2 times
without singing
after the intro and then you start
like i write
here and you continue until Riff2)
|---4-4-4-4-4-4-4---|---------------------------------------------|
|---6-6-5-6-6-5-5---|---------------------------------------------|
|---5-5-5-5-5-6-6---|---------------------------------------------|
|---5-5-5-5-5-6-6---|--4-4-4-4---4-4-4-4-4-4----------------------|
|---4-4-4-4-4-4-4---|--6-6-6-6---6-6-6-6-6-6----------------------|
|---4-4-4-4-4-4-4---|--4-4-7-4---6-6-7-6-7-6----------------------|
you show us everything...


Riff2
|-----------------------------------------------------------------|
|-----------------------------------------------------------------|
|--6-6-8-6-6-6------8-8-10-8--8-8---------------------------------|
|--6-6-6-6-8-6------8-8--8-8-10-8---------------------------------|
|--4-4-4-4-4-4------6-6--6-6--6-6---------------------------------|
|-----------------------------------------------------------------|
you drive us wild, we’ll drive you

|---4-4-4-4-4-4-4-------------------------------------------------|
|---6-6-5-6-6-5-5-------------------------------------------------|
|---5-5-5-5-5-6-6-------------------------------------------------|
|---5-5-5-5-5-6-6-------------------------------------------------|
|---4-4-4-4-4-4-4-------------------------------------------------|
|---4-4-4-4-4-4-4-------------------------------------------------|
Crazy!!

Riff 3
|-----------------------------------------------------------------|
|---------------------------------8-------------------------------|
|----4-4-6-4-6-4----6-6-8-6-8-6-6-6-------------------------------|
|----2-2-2-2-2-2----4-4-4-4-4-4-4-4-------------------------------|
|-----------------------------------------------------------------|
|-----------------------------------------------------------------|
you keep on...


Chorus
G# chord diagramG#G#
|---------4-------------------------------------------------------|
|---------4-------------------------------------------------------|
|---------5--------------------------6-6-8-6-8--8-8-10-8-10-------|
|---------6--------------------------6-6-8-6-8--8-8-10-8-10-------|
|--15/----6--------------------------4-4-4-4-4--6-6--6-6--6-------|
|---------4-------------------------------------------------------|
I     wanna rock & roll all n  i  te  and
party...

*The second verse you play the same like the first

Cool end
|-----------------------------------------------------------------|
|---------------------------7b--5-7-5-----------------------------|
|--5-5-7-5-7-5--7-7-9-7-----7b--5-7-5-7-5-7-5-1-2~~---------------|
|--3-3-3-3-3-3--5-5-5-5---------------7-5-7-5-1-2~~---------------|
|-----------------------------------------------------------------|
|-----------------------------------------------------------------|

Other versions of Rock And Roll All Nite

Rock and roll all niteChords
Rock and roll all nite (Ver. 2)Chords
Rock and roll all nite (Ver. 2)Tabs

Almost there ...

Sign in to get your own page with links to favourite songs and more. You are just one click away...

Login with Facebook Login with Google