Search tabs and chords

Search for song, artist or band

Log in

One click and you are in

Login with Facebook Login with Google

Why sign up and log in

Guitar Tabs Explorer
Kiss guitar tabs for Lick it up

Guitar tabs

Lick It Up by Kiss

This is the version of Smashes..................from Scott


-------------------------------------------------------------
-------------------------------------------------------------
2------------------------------------------------------------
2------------------------------------------------------------
0--0--0--0--0--0--0--0--0--0--0--0--0--0--0--0--0--0--0--0--0
-------------------------------------------------------------
pm...........................................................
-----------------------------------------------------------------------
7m--MORE--(13%)m
K
------------------------------------------3--3----------------3--3-----
2-----------------------------------------2--2----2-----------2--2----2
2-----------------------------------------0--0----2-----------0--0----2
0--0--0--0--0--0--0--0--0--0--0--0--0--0----------0--0--0--0----------0
-----------------------------------------------------------------------
pm.....................................              pm.....

Don’t wanna wait ’til ....


-----------------------------------------------------------------------
------------------------------------------3--3----------------3--3-----
2-----------------------------------------2--2----2-----------2--2----2
2-----------------------------------------0--0----2-----------0--0----2
0--0--0--0--0--0--0--0--0--0--0--0--0--0----------0--0--0--0----------0
-----------------------------------------------------------------------
pm.....................................              pm.....
Let’s just be glad for ...

3----------------------------------------------------------------------
3-----------------------------------------3--3----------------3--3-----
0-----------------------------------------2--2----2-----------2--2----2
0-----------------------------------------0--0----2-----------0--0----2
7m--MORE--(32%)m
K
--------------------------------------------------0--0--0--0----------0
3----------------------------------------------------------------------
(let ring)                                       pm.....
Life’s such a treat and ...

3-----------------------------------------
3-----------------------------------------
0-----------------------------------------
0-----------------------------------------
------------------------------------------
3-----------------------------------------
(let ring)
There ain’t a reason on ...

------------------------------------------
3--------3-------3------3-----------------
2--------2-------2------2-----------------
0--------0-------0------0-----------------
------------------------------------------
2--------2-------2------2-----------------
It ain’t a crime to be ...

7m--MORE--(45%)m
K
chorus.
-------------------------------------------------3--------
3----3--------------------3----3-----------------3---3----
2----2---2----------------2----2---2-------------0---2---2
0----0---2----------------0----0---2-------------0---0---2
---------0--0--0--0----------------0---0--0--0-----------0
-------------------------------------------------3--------
pm......                    pm ....
Lick it up              ...
(Its only right now)

-------------------------------------------------3--------
3----3--------------------3----3-----------------3---3----
2----2---2----------------2----2---2-------------0---2---2
0----0---2----------------0----0---2-------------0---0---2
---------0--0--0--0----------------0---0--0--0-----------0
-------------------------------------------------3--------
pm......                    pm ....
Lick it up                ...
(oohhh yeah)
-------------------------------------------------3--------
3----3--------------------3----3-----------------3---3----
2----2---2----------------2----2---2-------------0---2---2
7m--MORE--(61%)m
K
0----0---2----------------0----0---2-------------0---0---2
---------0--0--0--0----------------0---0--0--0-----------0
-------------------------------------------------3--------
pm......                    pm ....
Lick it up                ...
(come on come on)

-------------------------------------------------3--------
3----3--------------------3----3-----------------3---3----
2----2---2----------------2----2---2-------------0---2---2
0----0---2----------------0----0---2-------------0---0---2
---------0--0--0--0----------------0---0--0--0-----------0
-------------------------------------------------3--------
pm......                    pm ....
Lick it up                ...

verse 2 (just like verse 1)
7m--MORE--(75%)m
K
repeat chorus


(x4)
----------------------------------------------
----------------------------------------------
---------------------2------------------------
4--5--5----4--5--5---2------------------------
4--5--5----4--5--5---0--0--0--0--0--0--0--0--0
2--3--3----2--3--3----------------------------
pm.....................


------3------------------------------------
----3--------------------------------------
--0---------0---2--------------------------
0---------0-----2--------------------------
----------------0--0--0--0--0--0--0--0--0--
--------3----------------------------------
pm......................

------3--3----------------------------------
----3------3--------------------------------
7m--MORE--(85%)m
K
--0---------0---2--------------------------
0---------------2--------------------------
----------------0--0--0--0--0--0--0--0--0--
-------------------------------------------
pm......................

------3------------------------------------
----3--------------------------------------
--0---------0---2--------------------------
0---------0-----2--------------------------
----------------0--0--0--0--0--0--0--0--0--
--------3----------------------------------
pm......................

------3--3---------------------------------
----3------3-------------------------------
--0---------0------------------------------
0---------------4-----5-----7---7---7---7--
----------------4-----5-----7---7---7---7--
----------------2-----3-----5---5---5---5--

repeat chorus and fade...

Almost there ...

Sign in to get your own page with links to favourite songs and more. You are just one click away...

Login with Facebook Login with Google