Guitar Tabs Explorer
Kiss bass tabs for Let me go rock and roll

Let Me Go Rock And Roll bass tab


Be the first to rate

Let Me Go Rock And Roll bass tab by Kiss

Bass tabs

Print

slide 1

G--19/--|

main riff x4

G--2------------|
D--------2-4-2--|
A----034--------|
E---------------|

verse 1

G--2------------2------------2------------2------2------|
D--------2-4-2--------2-4-2--------2-4-2----------------|
A----034----------034----------034----------034----034--|
E-------------------------------------------------------|

riff 1

G--------7--5--|
D--------------|
A--5--5--------|
E--------------|

main riff x2

chorus

G-----------------|
D--5-----3--5--7--|
A-----5-----------|
E-----------------|


slide 2

G--14/--|

main riff x4

verse 2

G--2------------2------------2------------2-4-5-6--|
D--------2-4-2--------2-4-2--------2-4-2-----------|
A----034----------034----------034-----------------|
E--------------------------------------------------|

riff 1

main riff x2

chorus

slide 3

D--12/--|

main riff x4

repeat from verse 2

verse 2

riff 1

main riff x2

chorus (don't play last note)

end

G--------------|
D--------------|
A--0--0--0--0--|
E--------------|

Comment this song and these bass tabs

Do you have corrections, comments on the bass tabs, thoughts about the song or a message to the author? Write them below.