Guitar Tabs Explorer
Kiss guitar tabs for King of the nighttime world

King Of The Nighttime World tab


Be the first to rate

King Of The Nighttime World tab by Kiss

Guitar tabs

Print

King of the Nighttine World

off the album Destroyer

by Kiss

tune down 1/2 step

----------------------
----------------------
-7-5-7--7-5-7--7-5-7--
-7-5-7--7-5-7--7-5-7--
-5-5-5--5-5-5--5-5-5--
----------------------

----------------------
----------------------
-9-7--12-12----------
-9-7--12-12----------
-7-5--10-10----------
----------------------

----------------------
----------------------
-7-5-7--9-7--12-12----
-7-5-7--9-7--12-12-----
-5-5-5--7-5--10-10----
----------------------

verses (unsure about the first chords)
if you find better please let me know

----------------------
-8-8-7---13-13-12--6-6-5-
-7-7-7---14-14-12--5-5-5-??
-9-9-7---12-12-12--7-7-5-
----------------------
----------------------

chorus

------------------------------
--------------------------6-6-6-
-7-9-7-12-12---7-6-5--5--5-5-5-
-7-9-7-12-12---7-6-5--5--3-3-3-
-5-7-5-10-10---5-4-3--3--------
----------------------

rhythm during solo

----------------------
----------------------
-7-5-7--7-5-7--7-5-7-
-7-5-7--7-5-7--7-5-7-
-5-5-5--5-5-5--5-5-5-
----------------------

----------------------
--------------------6--
-7-5-7--12--7-6-5--5--
-7-5-7--12--7-6-5--3--
-5-5-5--10--5-4-3-----
----------------------

Comment this song and these guitar tabs

Do you have corrections, comments on the guitar tabs, thoughts about the song or a message to the author? Write them below.