Search tabs and chords

Search for song, artist or band

Log in

One click and you are in

Login with Facebook Login with Google

Why sign up and log in

Guitar Tabs Explorer
Kiss bass tabs for Im an animal

Bass tabs with lyrics

I'M AN ANIMAL - KISS
-------------------------------------------------------------------------------

Tabbed By : Rammsteinrocker
e-mail: victor_keeper1@hotmail.com

Tuning: Half-Step Down

Note: This is a sweet song on the new Kiss album aswell as my first tab ever.
There are some fills and minor things that im not sure of, but this is how I play it.
Rate, comment and enjoy!

     ~0:01 - ~0:28
Gb|---------------------------------------------------------------------------|
Db|-------------------5-4-3------------------------------5-4-3----------------|
Ab|---------5-6-7-----------------------------------------------7-------------|
Eb|--3-4-5----------0-------0--7-5-7-5--3---0-00-3-5---0-----------\3-4-5-----|

Gb|---------------------------------------------------------------------------|
Db|----5-4-3------------------------------5-4-3-------------------------------|
Ab|-----------------------------------------------------5-6-7-----------------|
Eb|--0-------0--7-5-7-5--3---0-00-3-5---0--------3-4-5------------------------|

     ~0:28 - ~0:52
Gb|---------------------------------------------------------------------------|
Db|---------------------------------------------------------------------------|
Ab|---------------------------------------------------------------------------| x2
Eb|--0-00-7~--0-00-6h7~--0-00-7~--3-3\2--0-00-7~--0-00-6h7~--0-00-7~--3-3h5---|

     ~0:52 - ~1:04
Gb|------------------------------------------------77777777-------------------|
Db|----------------------5---5------------------------------------------------|
Ab|------------------5h7---7---7-77------------5555---------------------------|
Eb|--77777777--555-------------------88888888---------------------------------|

     ~1:04 - ~1:28
Gb|---------------------------------------------------------------------------|
Db|----5-4-3------------------------------5-4-3-------------------------------|
Ab|----------------------------------------------7----------------------------|
Eb|--0-------0--7-5-7-5--3---0-00-3-5---0----------\3-4-5---------------------|

Gb|---------------------------------------------------------------------------|
Db|----5-4-3-------------------------------5-4-3------------------------------|
Ab|----------------------------------------------------5-6-7------------------|
Eb|--0-------0--7-5-7-5--3---0-00-3-5---0--------3-4-5------------------------|

     ~1:28 - ~1:46
Gb|---------------------------------------------------------------------------|
Db|---------------------------------------------------------------------------|
Ab|---------------------------------------------------------------------------|
Eb|--0-00-7~--0-00-6h7~--0-00-7~--3-3\2--0-00-7~--0-00-6h7~--0-00-7~--3-3\2---|

Gb|---------------------------------------------------------------------------|
Db|---------------------------------------------------------------------------|
Ab|---------------------------------------------------------------------------|
Eb|--0-00-7~--0-00-6h7~--0-00-7~--3-3h5---------------------------------------|

     ~1:46 - ~1:58
Gb|------------------------------------------------77777777-------------------|
Db|----------------------5---5------------------------------------------------|
Ab|-----------------5h7----7---7-77------------5555---------------------------|
Eb|--77777777--555------------------88888888----------------------------------|

     ~1:58 - ~2:22
Gb|---------------------------------------------------------------------------|
Db|----5-4-3------------------------------5-4-3-------------------------------|
Ab|----------------------------------------------7----------------------------|
Eb|--0-------0--7-5-7-5--3---0-00-3-5---0-----------\3-4-5--------------------|

Gb|---------------------------------------------------------------------------|
Db|----5-4-3-------------------------------5-4-3------------------------------|
Ab|----------------------------------------------------5-6-7------------------|
Eb|--0-------0--7-5-7-5--3---0-00-3-5---0--------3-4-5------------------------|

(Guitar only ~2:22 - ~2:33)



   Play these 2 bars twice.  ~2:33 - ~2:58
Gb|---------------------------------------------------------------------------|
Db|---------------------------------------------------------------------------|
Ab|------------------------7---7-5---7-5-------7---7-5---5--------------------|
Eb|---0-2-3-2-3-2-0---0-00---0-----0------0-00---------7---7--5-3-------------|

Gb|---------------------------------------------------------------------------|
Db|---------------------------------------------------------------------------|
Ab|--------7---7-5---7-5-------7----------------------------------------------|
Eb|---0-00---0-----0------0-00------------------------------------------------|

   Second time, you end with this:
Gb|---------------|
Db|---------------|
Ab|--5-6-7--------|
Eb|---------------|

      ~2:58 - ~3:46
Gb|---------------------------------------------------------------------------|
Db|----------------------5---5------------------------------------------------|
Ab|-----------------5h7----7---7-77------------55555--------------------------|
Eb|--77777777--555------------------88888888----------------------------------|

Gb|---------------------------------------------------------------------------|
Db|----5-4-3------------------------------5-4-3-------------------------------|
Ab|----------------------------------------------7----------------------------|
Eb|--0-------0--7-5-7-5--3---0-00-3-5---0----------\3-4-5---------------------|

Gb|---------------------------------------------------------------------------|
Db|----5-4-3-------------------------------5-4-3------------------------------|
Ab|----------------------------------------------------5-6-7------------------|
Eb|--0-------0--7-5-7-5--3---0-00-3-5---0--------3-4-5------------------------|

Gb|---------------------------------------------------------------------------|
Db|---------------------------------------------------------------------------|
Ab|--------5-6-7--------5-6-7--77--77-----------------------------------------|
Eb|--3-4-5--------3-4-5-------------------------------------------------------|


| /  slide up
| \  slide down
| h  hammer-on
| p  pull-off
| ~  vibrato
| +  harmonic
| x  Mute note
data-matched-content-ui-type="image_card_stacked"

Almost there ...

Sign in to get your own page with links to favourite songs and more. You are just one click away...

Login with Facebook Login with Google