Guitar Tabs Explorer
Kiss bass tabs for I was made for loving you

I Was Made For Loving You bass tab


Be the first to rate

I Was Made For Loving You bass tab by Kiss

Bass tabs

Print

Rhythm Fig. 1

G|----------------------------------------------------|
D|----------------------------------------------------|
A|-----7-----7--------7-------------------------------|
E|--0-----0-----0--0-----0----------------------------|
Rhythm Fig. 2

G|----------------------------------------------------|
D|----------------------------------------------------|
A|-----7-----7--------7---------7-----7--------7------|
E|--0-----0-----0--0-----0---0-----0-----0--0-----0---|

G|------------------------------------7--------7------|
D|-----7-----7--------7-------------------------------|
A|------------------------------7--5-----5--5----(5)--|
E|--5-----5-----5--5-----0---0------------------------|
Rhythm Fig. 3

G|----------------------------------------------------|
D|----------------------------------------------------|
A|-----7-----7--------7---------7-----7--------7------|
E|--0-----0-----0--0-----0---0-----0-----0--0-----0---|

G|----------------------------------------------------|
D|-----7-----7--------7---------7-----7---------------|
A|---------------------------------------------5--5---|
E|--5-----5-----5--5-----5---5-----5-----5--5---------|
Rhythm Fig. 4

G|----------------------------------------------------|
D|------------------------------5-----5--------5------|
A|-----7-----7--------7-------------------------------|
E|--0-----0-----0--0-----0---3-----3-----3--3-----3---|
    < - - - - 2x - - - - >   < - - - - 2x - - - - >
G|----------------------------------------------------|
D|-----9-----9--------9-------------------------------|
A|------------------------------7-----7--------7------|
E|--7-----7-----7--7-----7---0-----0-----0--0-----0---|
    < - - - - 2x - - - - >   < - - - - 2x - - - - >
G|----------------------------------------------------|
D|------------------------------5-----5--------5------|
A|-----7-----7--------7-------------------------------|
E|--0-----0-----0--0-----0---3-----3-----3--3-----3---|
    < - - - - 2x - - - - >   < - - - - 2x - - - - >
G|----------------------------------------------------|
D|-----9-----9--------9---------7-----7--------7------|
A|----------------------------------------------------|
E|--7-----7-----7--7-----7---5-----5-----5--5-----5---|
    < - - - - 2x - - - - >


G|----------------------------------------------------|
D|-----7-5--------------------------------------------|
A|---------7-5----------------------------------------|
E|--5----------8-7-5----12---------------------------|
Rhythm Fig. 5

G|-------------------5---------------------5----------|
D|--------5---------------------5---------------------|
A|--3--3-----3----3-----3----3-----3----3-------------|
E|----------------------------------------------------|

G|-------------------7--------------------------------|
D|--------7-------------------------------------------|
A|--5--5-----5----5-----5----5--7--------5-----------|
E|----------------------------------------------------|
Rhythm Fig. 6
G|-------------------5---------------------5----------|
D|--------5---------------------5---------------------|
A|--3--3-----3----3-----3----3-----3----3-------------|
E|----------------------------------------------------|

G|----------------------------4-----4--------4--------|
D|----------------------------------------------------|
A|--5--5--5--5--5/---0--2--------2-----2--2-----2-----|
E|----------------------------------------------------|

G|-----4-----4--------4-------------------------------|
D|----------------------------------------------------|
A|--2-----2-----2--2-----2---2------------------------|
E|----------------------------------------------------|
    < - - - 3x - - - - - >
Rhythm Fig. 7
G|----------------------------------------------------|
D|----------------------------------------------------|
A|-----7-----7--------7--------7-----7--------7-------|
E|--0-----0-----0--0-----0--0-----0-----0--0-----0----|

G|----------------------------------------------------|
D|-----7-----7--------7-------------------------------|
A|--------------------------------7--5--5----7--5-----|
E|--5-----5-----5--5-----5--0--0----------------------|

Other versions of I Was Made For Loving You

- I was made for loving you (Ver. 2)Bass tabs

Comment this song and these bass tabs

Do you have corrections, comments on the bass tabs, thoughts about the song or a message to the author? Write them below.