Guitar Tabs Explorer
Kiss bass tabs for I was made for loving you (Ver. 2)

I Was Made For Loving You bass tab


Be the first to rate

I Was Made For Loving You bass tab by Kiss (Ver. 2)

Bass tabs with lyrics

Print
-------------------------------------------------------------------------------
			     I was Made for Loving you - Kiss
-------------------------------------------------------------------------------

Tabbed By : Loxias
e-mail: luiz999@gmail.com

Tuning: Standard

Pretty straight forward, Octaves and fifths.


Intro x4:
G|--------------------------------------------------------------------------|
D|----------2-----------2------------2--------------------------------------|
A|--------------------------------------------------------------------------|
E|------0----------0--------0----0------------------------------------------|

Then the guitar enters :
G|--------------------------------------------------------------------------|
D|-------2-----2---------2--------2---2-----------2-------------------------|
A|--------------------------------------------------------------------------|
E|----0----0------0--0---------0----0-------0--0----------------------------|

G|-------2-----2--------2---------------------------------------------------|
D|--------------------------------------------------------------------------|
A|-----0----0-----0--0--------------------7-----(5)----7s2------------------|
E|-----------------------------------5--------------------------------------|

(Oh yeah)
G|--------------------------------------------------------------------------|
D|-------2-----2---------2--------2---2-----------2-------------------------|
A|--------------------------------------------------------------------------|
E|----0----0------0--0---------0----0-------0--0----------------------------|

G|-------2-----2--------2---------------------------------------------------|
D|--------------------------------------------------------------------------|
A|-----0----0-----0--0--------------------7-----(5)----7s2------------------|
E|-----------------------------------5--------------------------------------|


(uuuuhs)
G|--------------------------------------------------------------------------|
D|-------2-----2---------2--------2---2-----------2-------------------------|
A|--------------------------------------------------------------------------|
E|----0----0------0--0---------0----0-------0--0----------------------------|

G|-------2-----2--------2---------------------------------------------------|
D|------------------------------------------2--0h2--------------------------|
A|-----0----0-----0--0--------------------0---------------------------------|
E|--------------------------------------------------------------------------|

G|--------------------------------------------------------------------------|
D|-------2-----2---------2--------2---2-----------2-------------------------|
A|--------------------------------------------------------------------------|
E|----0----0------0--0---------0----0-------0--0----------------------------|

G|------------------------------------7-----7-------7-----------------------|
D|------7-----7------------7------------------------------------------------|
A|-------------------------------5-----5------5--5--------------------------|
E|---5------5------5--5-----------------------------------------------------|


Tonight...
G|--------------------------------------------------------------------------|
D|-------2-----2---------2--------2---2-----------2-------------------------|
A|--------------------------------------------------------------------------|
E|----0----0------0--0---------0----0-------0--0----------------------------|

I wanna give it all to you...
G|-------2-----2--------2-----------2---2--------2--------------------------|
D|--------------------------------------------------------------------------|
A|-----0----0-----0--0-----------0----0----0--0-----------------------------|
E|--------------------------------------------------------------------------|

In the Darkness...
G|-------4----4--------4-----------4---4--------4---------------------------|
D|--------------------------------------------------------------------------|
A|-----2----2-----2--2-----------2---2-----2--2-----------------------------|
E|--------------------------------------------------------------------------|

There's so much I wanna do...
G|--------------------------------------------------------------------------|
D|-------2-----2---------2--------2---2-----------2-------------------------|
A|--------------------------------------------------------------------------|
E|----0----0------0--0---------0----0-------0--0----------------------------|

And Tonight...
G|--------------------------------------------------------------------------|
D|-------2-----2---------2--------2---2-----------2-------------------------|
A|--------------------------------------------------------------------------|
E|----0----0------0--0---------0----0-------0--0----------------------------|

I wanna lay it in at your feet...
G|-------2-----2--------2-----------2---2--------2--------------------------|
D|--------------------------------------------------------------------------|
A|-----0----0-----0--0-----------0----0----0--0-----------------------------|
E|--------------------------------------------------------------------------|

Cause girl I was made for you...
G|-------4----4--------4-----------4---4--------4---------------------------|
D|--------------------------------------------------------------------------|
A|-----2----2-----2--2-----------2---2-----2--2-----------------------------|
E|--------------------------------------------------------------------------|

And girl you were made for me...
G|-------2-----2--------2-----------2---2--------2--------------------------|
D|--------------------------------------------------------------------------|
A|-----0----0-----0--0-----------0----0----0--0-----------------------------|
E|---------------------------------------------------------------------12\--|


Chorus:
I was made for loving you baby...
G|--------------------------------------------------------------------------|
D|-------2-----2---------2--------2---2-----------2-------------------------|
A|--------------------------------------------------------------------------|
E|----0----0------0--0---------0----0-------0--0----------------------------|

You were made for loving me...
G|-------2-----2--------2-----------2---2--------2--------------------------|
D|-----------------------------------------------------(2)------------------|
A|-----0----0-----0--0-----------0----0----0--0-----------------------------|
E|--------------------------------------------------------------------------|

And I can't get enough of you baby

G|--------------------------------------------------------------------------|
D|-------2-----2---------2--------2---2-----------2-------------------------|
A|--------------------------------------------------------------------------|
E|----0----0------0--0---------0----0-------0--0----------------------------|

Can you get enough of me?
G|-------2-----2--------2---------------------------------------------------|
D|------------------------------------------2--0h2--------------------------|
A|-----0----0-----0--0--------------------0---------------------------------|
E|--------------------------------------------------------------------------|

The second Verse is exactly the same as the first verse.

Tonight I wanna see it in your eyes.
Feel the Magic, there's something that drives me wild.
And tonight, we gonna make it all come true.
'Cause girl you were made for me, and Girl I was made for you.

Chorus 2x:
I was made for loving you baby...
G|--------------------------------------------------------------------------|
D|-------2-----2---------2--------2---2-----------2-------------------------|
A|--------------------------------------------------------------------------|
E|----0----0------0--0---------0----0-------0--0----------------------------|

You were made for loving me...
G|-------2-----2--------2-----------2---2--------2--------------------------|
D|-----------------------------------------------------(2)------------------|
A|-----0----0-----0--0-----------0----0----0--0-----------------------------|
E|--------------------------------------------------------------------------|

And I can give it all to you baby...

G|--------------------------------------------------------------------------|
D|-------2-----2---------2--------2---2-----------2-------------------------|
A|--------------------------------------------------------------------------|
E|----0----0------0--0---------0----0-------0--0----------------------------|

Can you give it all to me?
G|-------2-----2--------2---------------------------------------------------|
D|------------------------------------------2--0h2--------------------------|
A|-----0----0-----0--0--------------------0---------------------------------|
E|--------------------------------------------------------------------------|


Bridge:
(Since There's only one lyric in the bridge, repetead in higher notes and octaves, I'll
write the Bass parts here. Timing has changed, so listen to the song for the correct time.)

Ooo I can't get enough... 2x
G|-----------5----------5------------5----------5---------------------------|
D|--------------------------------------------------------------------------|
A|-----3--3----3----3-----------3--3---3------3-----------------------------|
E|--------------------------------------------------------------------------|

G|-----------7----------7----------7---------7------------------------------|
D|--------------------------------------------------------------------------|
A|-----5--5----5-----5--------5--5---5----5---------------------------------|
E|--------------------------------------------------------------------------|


The last time Gene plays this:
G|-----------5----------5------------5----------5---------------------------|
D|--------------------------------------------------------------------------|
A|-----3--3----3----3-----------3--3---3------3-----------------------------|
E|--------------------------------------------------------------------------|

G|--------------------------------4--4-------4------4---4-------4-----------|
D|--------------------------------------------------------------------------|
A|-------5--5--5--5--5----0-----2---2---2--2------2---2----2--2-------------|
E|--------------------------------------------------------------------------|

And that's it.
Just repeat the chorus line until it fades out.

Have fun!

| /  slide up
| \  slide down
| h  hammer-on
| p  pull-off
| ~  vibrato
| +  harmonic
| x  Mute note
|( ) Let Ring

Other versions of I Was Made For Loving You

- I was made for loving youBass tabs

Comment this song and these bass tabs

Do you have corrections, comments on the bass tabs, thoughts about the song or a message to the author? Write them below.