Guitar Tabs Explorer
Kiss guitar tabs for I was made for lovin you (Ver. 3)

I Was Made For Lovin You tab


Be the first to rate

I Was Made For Lovin You tab by Kiss (Ver. 3)

Guitar tabs

Print
Standard Tuning (E chord diagramEE,A,D,G,B,e)

Legend

* |Palm Muted
\ |Slide down to
/ |Slide up to
~ |Vibrato
h |Hammer On
p |Pull Off
b |Bend
r |Release Bend


Intro - Part 1

Guitar 1

e|----------------|
B|----------------|
G|----------------|
D|----------------|
A|----------------|
E|-0-0-0-0-0-....-|



Intro - Part 2

Guitar 1

e|-----------------|-----------------|-----------------|-----------------|
B|-----------------|-----------------|-----------------|-----------------|
G|-----------------|-----------------|-----------------|-----------------|
D|-----------------|-----------------|-----------------|-----------------|
A|-----------------|-----------------|-----------------|-----------------|
E|-0-0-0-0-0-0-0-0-|-0-0-0-0-0-0-0-0-|-5-5-5-5-5-5-5-5-|-5-5-5-5-5-5-5-5-|
   * * * * * * * *   * * * * * * * *   * * * * * * * *   * * * * * * * *

e|-----------------|-----------------|
B|-----------------|-----------------|
G|-----------------|-----------------|
D|-----------------|-----------------|
A|-----------------|-----------------|
E|-0-0-0-0-0-0-0-0-|-0-0-0-0-0-0-0-0-|
   * * * * * * * *   * * * * * * * *


Guitar 2

2X
e|------------------|--------------|
B|------------------|--------------|
G|-14-12---14-14p12-|-7-5---9-9p-7-|
D|-14-14---14-14----|-7-7---9-9p-7-|
A|------------------|--------------|
E|------------------|--------------|


Guitar 3

e|---------------------------------------------------------------------------------|
B|-3h5p3p0-------------------15b17r15p12-------------------------------------------|
G|---------4-2h4p2p0---0h2~---------------14b16r14p12-14-14b16r14p12---------------|
D|-------------------2------------------------------------------------14-12-12h14~-|
A|---------------------------------------------------------------------------------|
E|---------------------------------------------------------------------------------|



Intro - Part 3

Guitar 1

e|-----------------|-----------------|-----------------|-----------------|
B|-----------------|-----------------|-----------------|-----------------|
G|-----------------|-----------------|-----------------|-----------------|
D|-----------------|-----------------|-----------------|-----------------|
A|-----------------|-----------------|-----------------|-----------------|
E|-0-0-0-0-0-0-0-0-|-0-0-0-0-0-0-0-0-|-0-0-0-0-0-0-0-0-|-0-0-0-0-0-0-0-0-|
   * * * * * * * *   * * * * * * * *   * * * * * * * *   * * * * * * * *

e|-----------------|-----------------|-----------------|-----------------|
B|-----------------|-----------------|-----------------|-----------------|
G|-----------------|-----------------|-----------------|-----------------|
D|-----------------|-----------------|-----------------|-----------------|
A|-----------------|-----------------|-----------------|-----------------|
E|-5-5-5-5-5-5-5-5-|-5-5-5-5-5-5-5-5-|-5-5-5-5-5-5-5-5-|-5-5-5-5-5-5-5-5-|
   * * * * * * * *   * * * * * * * *   * * * * * * * *   * * * * * * * *

e|-----------------|-----------------|-----------------|-----------------|
B|-----------------|-----------------|-----------------|-----------------|
G|-----------------|-----------------|-----------------|-----------------|
D|-----------------|-----------------|-----------------|-----------------|
A|-----------------|-----------------|-----------------|-----------------|
E|-0-0-0-0-0-0-0-0-|-0-0-0-0-0-0-0-0-|-0-0-0-0-0-0-0-0-|-0-0-0-0-0-0-0-0-|
   * * * * * * * *   * * * * * * * *   * * * * * * * *   * * * * * * * *

e|-----------------|-----------------|-----------------|-----------------|
B|-----------------|-----------------|-----------------|-----------------|
G|-----------------|-----------------|-----------------|-----------------|
D|-----------------|-----------------|-----------------|-----------------|
A|-----------------|-----------------|-----------------|-----------------|
E|-5-5-5-5-5-5-5-5-|-5-5-5-5-5-5-5-5-|-0-0-0-0-0-0-0-0-|-0-0-0-0-0-0-0-0-|
   * * * * * * * *   * * * * * * * *   * * * * * * * *   * * * * * * * *


Guitar 2

e|------------------|--------------|------------------|--------------|
B|------------------|--------------|------------------|--------------|
G|-14-12---14-14p12-|-7-5---7-7p-5-|-14-12---14-14p12-|-7-5---9-9p-7-|
D|-14-14---14-14----|-7-7---7-7----|-14-14---14-14----|-7-7---9-9p-7-|
A|------------------|--------------|------------------|--------------|
E|------------------|--------------|------------------|--------------|



First Verse

Em chord diagramEmEm - G chord diagramGG - B chord diagramBB - Em chord diagramEmEm - EM chord diagramEMEM - G chord diagramGG - B chord diagramBB - A chord diagramAA


Em chord diagramEmEm                            G chord diagramGG
e|----|----|----|----|----|X  e|----|----|--3-|----|----|X
B|----|--2-|----|----|----|0  B|----|----|--3-|----|----|0
G|----|----|----|----|----|0  G|----|----|--3-|----|----|0
D|----|----|--4-|----|----|0  D|----|----|--3-|----|----|0
A|----|----|--3-|----|----|0  A|--1-|----|----|----|----|0
E|--1-|----|----|----|----|X  E|----|----|----|----|----|X
    7    8    9   10   11        10   11   12   13   14

B chord diagramBB                             A chord diagramAA
e|----|----|----|----|----|X  e|----|----|----|----|----|X
B|----|----|----|----|----|X  B|----|----|----|----|----|X
G|----|--2-|----|----|----|0  G|----|--2-|----|----|----|0
D|----|----|--4-|----|----|0  D|----|----|--4-|----|----|0
A|----|----|--3-|----|----|0  A|----|----|--3-|----|----|0
E|--1-|----|----|----|----|0  E|--1-|----|----|----|----|0
    7    8    9   10   11         5    6    7    8    9


   A chord diagramAA
e|-------------------------|
B|-------------------------|
G|-6---6---6---6---6---6---|
D|-7-----------------------|
A|-7-----------------------|
E|-5-5---5---5---5---5---5-|



Refrain = Intro - Part 3



Second Verse

Em chord diagramEmEm - G chord diagramGG - B chord diagramBB - Em chord diagramEmEm - EM chord diagramEMEM - G chord diagramGG - B chord diagramBB - A chord diagramAA



Refrain = 2 X Intro - Part 3



Interlude

Guitar 1

e|-----------------|-----------------|-----------------|-----------------|
B|-----------------|-----------------|-----------------|-----------------|
G|-----------------|-----------------|-----------------|-----------------|
D|-----------------|-----------------|-----------------|-----------------|
A|-3-3-3-3-3-3-3-3-|-3-3-3-3-3-3-3-3-|-3-3-3-3-3-3-3-3-|-3-3-3-3-3-3-3-3-|
E|-----------------|-----------------|-----------------|-----------------|

e|-----------------|-----------------|-----------------|-----------------|
B|-----------------|-----------------|-----------------|-----------------|
G|-----------------|-----------------|-----------------|-----------------|
D|-----------------|-----------------|-----------------|-----------------|
A|-5-5-5-5-5-5-5-5-|-5-5-5-5-5-5-5-5-|-5-5-5-5-5-5-5-5-|-7-7-7-7-5-5-5-5-|
E|-----------------|-----------------|-----------------|-----------------|


Guitar 2

e|-5-----7--------------------------------|
B|-5-----5--------------------------------|
G|-5-----5----------7-----7--7/9~\--7\----|
D|-7-----------x-x--7-----7--7/9~\--7\----|
A|-------------x-x--5-----5--5/7~\--5\----|
E|----------------------------------------|

e|-5-----7--------------------------------|
B|-5-----5--------------------------------|
G|-5-----5---------7-----7--7/9~\--9\--7\-|
D|-7-----------x-x-7-----7--7/9~\--9\--7\-|
A|-------------x-x-5-----5--5/7~\--7\--5\-|
E|----------------------------------------|

e|-5-----7--------------------------------|
B|-5-----5--------------------------------|
G|-5-----5---------7-----7--7/9~\--9\--7\-|
D|-7-----------x-x-7-----7--7/9~\--9\--7\-|
A|-------------x-x-5-----5--5/7~\--7\--5\-|
E|----------------------------------------|

e|-5-----7--------------------------|
B|-5-----5--------------------------|
G|-5-----5-----------7-----7-----7\-|
D|-7-----------------7-----7-----7\-|
A|-------------------5-5-5-5-5-5-5\-|
E|----------------------------------|

e|------------------------------------------------------------------------------|
B|------------------------------------------------------------------------------|
G|------------------------------------------------------------------------------|
D|-7-9------9-----9-----9-----9-----9-----9-----9-----9-----9-----9-----9-----9-|
A|-7-9------9-----9-----9-----9-----9-----9-----9-----9-----9-----9-----9-----9-|
E|-5-7--7-7-7-7-7-7-7-7-7-7-7-7-7-7-7-7-7-7-7-7-7-7-7-7-7-7-7-7-7-7-7-7-7-7-7-7-|



Solo Part 1

e|-----------------------------------------------------------------------------|
B|-----------------------------------------------------------------------------|
G|-----------------------------------------------------------------------------|
D|---------------------------------9-9-...-9-9---------------------------------|
A|-9-9-9-9-10-10-10-10-12-12-12-12-------------9-9-9-9-10-10-10-10-12-12-12-12-|
E|-----------------------------------------------------------------------------|
   * * * *  *  *  *  *  *  *  *  * * * ... * * * * * *  *  *  *  *  *  *  *  *



Solo Part 2

e|------------------------------------------------------------|
B|------------------------------------------------------------|
G|------12---14b16-14-12-14-----12h14p12-----b16r14p12----12~-|
D|-12-x----x----------------12~----------14~-----------14-----|
A|------------------------------------------------------------|
E|------------------------------------------------------------|



Solo Part 3

e|------------------------------------------------------------------------------------|
B|-15b17--15b17~--12h15p12--------------------------------------15--------------------|
G|-------------------------14--14b16~--14b16r14p12----12--14b16-----14b16r--12-14-----|
D|-------------------------------------------------14-----------------------------14~-|
A|------------------------------------------------------------------------------------|
E|------------------------------------------------------------------------------------|



Intro - Part 3



Refrain = 4 X Intro - Part 3

Other versions of I Was Made For Lovin You

- I was made for lovin youChords
- I was made for lovin youTabs
- I was made for lovin you (Ver. 2)Tabs
- I was made for lovin you (Ver. 4)Tabs

Comment this song and these guitar tabs

Do you have corrections, comments on the guitar tabs, thoughts about the song or a message to the author? Write them below.