Guitar Tabs Explorer
Kiss guitar chords for I wanna rock and roll all night

I Wanna Rock And Roll All Night chords


Be the first to rate

I Wanna Rock And Roll All Night chords by Kiss

Guitar chords with lyrics

Print

Kiss - i wanna rock and roll all night

transcribed by Nico Leo from scratch cos the last tab was rubbish

I dedicate this tab to Aaron Nunkoosing, Daniel ?, and Ben Harwood. And
Jimi... and RHCP And Metallica... and kobain

to all y'all guys out there in guitar land, I just wanna say thank you
for joining the realm of what i call "the guitar". This is my first and
probably my last tab and it aint to but you'll get the rhythm when you
hear the song.

this is all tuned down 1/2 step. just take a number off the tab to put it
in E chord diagramEE

Riff1:
e--5--5--5--5-5-5-5-
b--8--8--7--8-7-8-7-
g--7--7--7--7-7-7-7-
d--7--7--7--7-7-7-7-
a--5--5--5--5-5-5-5-
e-------------------

Riff2:
e--5----------x---x--x-x--x--
b--5----------9---10-9-10-9--
g--6----------9---9--9-9--9--
d--7----------9---9--9-9--9--
a--7----------7---7--7-7--7--
e--5-------------------------

Riff3:
e--5--5-5-5-5-5--x---x--x-x--x--
b--7--7-8-7-8-7--9---10-9-10-9--
g--7--7-7-7-7-7--9---9--9-9--9--
d--7--7-7-7-7-7--9---9--9-9--9--
a--5--5-5-5-5-5--7---7--7-7--7--
e-------------------------------

Riff4:
e-----------------------------------------
b-----------------------------------------
g--10---10-12-12-10-10---12---12-14-14-12-
d--10---10-12-12-10-10---10---12-14-14-12-
a--8----8--8--8--8--8----10---10-10-10-12-
e-----------------------------------------

Riff5:
e--5----------5--5-5-5-5-5---x---x--x-x--x--
b--5----------7--7-8-7-8-7---9---10-9-10-9--
g--6----------7--7-7-7-7-7---9---9--9-9--9--
d--7----------7--7-7-7-7-7---9---9--9-9--9--
a--7----------5--5-5-5-5-5---7---7--7-7--7--
e--5---------------------------------------

intro:riff1 and 2

riff 2 repeated
You show us everything you've got
You keep on dancin' and the room gets hot
riff 3 riff1
You drive us wild, we'll drive you crazy
riff2 repeated
You say you wanna go for a spin
The party's just begun, we'll let you in
riff3 riff1
You drive us wild, we'll drive you crazy
riff 4
You keep on shoutin', you keep on shoutin'

Riff 5
I wanna rock and roll all nite and party every day(x2)

riff 1

(same as last verse)
You keep on ...

(repeat last chorus whilst taking out guitar parts leaving ony voice a
few times)
I wanna rock and roll all nite and party every dayx8
I wanna rock and roll

Comment this song and these guitar chords

Do you have corrections, comments on the guitar chords, thoughts about the song or a message to the author? Write them below.