Guitar Tabs Explorer
Kiss guitar tabs for Hard luck woman

Hard Luck Woman tab


3.2 / 5 [6 votes]

Hard Luck Woman tab by Kiss

Guitar tabs

Print

Hard Luck Woman

by Kiss

off the album, Rock and Roll Over

tune down 1/2 step

-------------0-0-0-0-0-0-0-0-0-0-----
-------------3-3-3-3-1-2-2-2-2-3-----
-------------2-2-2-2---3-3-3-3-2----
--------2-0--0-0-0-0-----------0--
----0-3----------------------
-0-3-------------------------

-0-1-3-0----------3-3-3-3-3--1-1------
-0-1-3-1------3/5--5-5-5-5-5-3-3--------
-0-2-0-0------------------------
-2-3-0-2-----------------------
-2-3-x-3-----------------------
-0-1-3------------------------

---------------------------
---------------------------
---------------------------
-5h7-5-------------------------
------7-5---------3-5/7-5v------
----------8----3-5------------

---------------------------13p12----12
--------------------------------13----13--
----------------------------------12-----
---------------------------
----3-5/7-5-3v----5-7-8-10-------------
-3-5-------------------------

--0-0-0-0-0-0-0-0-0-0--3-1---1
--3-3-3-3-1-2-2-2-2-3--5-1-3-0
--2-2-2-2---3-3-3-3-2--4-2-0-2
--0-0-0-0-----------0---2-3-0-3
-----------------------------x
-----------------------------3

-----1-1-0-0-0-0------1-----------
-----1-1-3-3-3-3------1-3----------
-2X--2-0-2-2-2-2------2-0------------
-----3-2-0-0-0-0------3-0----------
-------------------------x--
-------------------------3--

-----------0-0-0-0-1--1--1--1--------0-1
-1-1-1-1--3-3-3-3-1--1--1---1--3--1-3-1-3---
-0-0-0-0--2-2-2-2-2--2--2---2--0--0-2-2-0---
-2-2-2-2--0-0-0-0-3--3--3---3--0--2-0-3-0----
-3-3-3-3-----------3--3--3---3--x--3-----x
-------------------1--1---1--1--3---------3


Someone requested this a little while ago...
Here it is. I hope it helps!



                                 Hard Luck Woman
                                      KISS
                   Transcribed & computer tabbed by Riff Raff
                                riffraff@niia.net


4/4 time               Dm chord diagramDmDm slide up/down                    C7 chord diagramC7C7
--------------|--------1--1/3--|--3\1--1----------------|-----------------------
--------------|--------3--3-5--|--5-3--3----------------|-----1--1----1---------
--------------|--------2--2-4--|--4-2--2----------------|-----0--0h2--0---------
---------0h2--|--0-----0-------|-------------------0h2--|-----2----------2------
---0--3-------|----------------|-------------0--3-------|--3--------------------
3-------------|----------------|----------3-------------|-----------------------

                                                                      C chord diagramCC
         C7 chord diagramC7C7                     Dm chord diagramDmDm    E chord diagramEE           F7 chord diagramF7F7        G7 chord diagramG7G7
---|-----0----------------|-----1--1-----0--0--|-----1--1-----3--3--|--0--------
---|-----1----------------|-----3--2-----0--0--|-----1--1-----3--3--|--1--------
---|-----0----------------|-----2--3-----0--0--|-----2--2-----4--4--|--0--------
0--|--2--2-----------0h2--|--0--------2--------|--3--------5--------|--2--------
---|--3--3-----0--3-------|--------------------|--------------------|--3--------
---|--------3-------------|--------------------|--------------------|-----------



--------12h13p12--------------12------|-----------------------------------------
----13------------13------13------13--|-----------------------------------------
12--------------------12--------------|-----------------------------------------
--------------------------------------|-----------------------------------------
--------------------------------------|-----------------------------------------
--------------------------------------|-----------------------------------------


If ever I'd     met you                if ...
----------|------1-----1/3--|--3\1--1---------------|---0-----------------------
----------|------3-----3-5--|--5-3--3---------------|---1--------1--1----1------
----------|------2-----2-4--|--4-2--2---------------|---0--------0--0h2--0------
----------|------0----------|-----------------------|---2--------2--------------
----------|-----------------|-----------------------|---3-----------------------
----------|-----------------|-----------------------|---------------------------


            If not for        f...
------|--0-----------------|------1--1-----0--0--|-----1--1-----3--3--|--0------
------|--1-----------------|------3--2-----0--0--|-----1--1-----3--3--|--1------
------|--0-----------------|------2--3-----0--0--|-----2--2-----4--4--|--0------
2--0--|--2------------0h2--|---0--------2--------|--3--------5--------|--2------
------|--3------0--3-------|---------------------|--------------------|--3------
------|------3-------------|---------------------|--------------------|---------


I keep tellin' you    hard   luck   ...
-------------------|---1------0------1-----|------------------|---1------0------
-------------------|---1------0------3-----|------------------|---1------0------
-------------------|---2------0------2-----|------------------|---2------0------
-------------------|---3------2------0-----|------------------|---3------2------
-------------------|-----------------------|------------------|-----------------
-------------------|-----------------------|------------------|-----------------






   woman     you'll be a        hard   ...
----1-----|------------------|---1------0------1--------|---1-------------------
----3-----|------------------|---1------0------3--------|---1-------------------
----2-----|------------------|---2------0------2--------|---2-------------------
----0-----|------------------|---3------2------0--------|---3-------------------
----------|------------------|--------------------------|---3-------------------
----------|------------------|--------------------------|---1-------------------


find ...
-3--------|---0-----------------------------------------------------------------
-3--------|---1-----------------------------------------------------------------
-4--------|---0-----------------------------------------------------------------
-5--------|---2-----------------------------------------------------------------
-5--------|---3-----------------------------------------------------------------
-3--------|---------------------------------------------------------------------


You wanted the best and you got it...
The hottest band in the land...

Other versions of Hard Luck Woman

Hard luck womanChords
Hard luck woman (Ver. 2)Chords
Hard luck woman (Ver. 3)Chords

Comment this song and these guitar tabs

Do you have corrections, comments on the guitar tabs, thoughts about the song or a message to the author? Write them below.