Log in

One click and you are in

Login with Facebook Login with Google

Why sign up and log in

Guitar Tabs Explorer
Kiss guitar chords for God gave rock n roll to you

Guitar chords with lyrics

(intro) A chord diagramC#C# A chord diagramF# minorF#m A chord diagramF#F# A chord diagramB minorBm A chord diagramE MajorE A chord diagramA majorA A chord diagramF#F# A chord diagramBB A chord diagramG#G# A chord diagramC#C# A chord diagramF#F#

(intro)

E|---------------------------------------------5--------------------------------|
B|---------------9~----9~/-------------------8---8-5------------------/5-8-5----|
G|----/8-11-11-8----11------------/5-7-5-7/8---------7--5---5~/----/6-----------|
D|-/9-------------------------/6--------------------------7---------------------|
A|------------------------------------------------------------------------------|
E|------------------------------------------------------------------------------|

E|---------------------------------------------|
B|-5-------------------------------------------|
G|---7-5-7-5--5~-------------------------------|
D|------------------/14-16-16-16-14-16~/-------|
A|---------------------------------------------|
E|---------------------------------------------|


 A chord diagramBB                F#/A#      A chord diagramG# minorG#m             G#m/F#
God gave rock and roll to you, gave rock and roll to you
A chord diagramE MajorE              A chord diagramG MajorG  A chord diagramA majorA   A chord diagramBB
Put it in the soul of everyone
A chord diagramE MajorE                                     A chord diagramA majorA
Do you know what you want? You don't know for sure
A chord diagramE MajorE                                A chord diagramA majorA
You don't feel right, you can't find a cure
            A chord diagramG MajorG                              A chord diagramD MajorD
And you're gettin' less than what you're lookin' for
A chord diagramE MajorE                          A chord diagramA majorA
You don't have money or a fancy car
A chord diagramE MajorE                                 A chord diagramA majorA
And you're tired of wishin' on a falling star
    A chord diagramG MajorG                          A chord diagramD MajorD         A chord diagramF#F#
You gotta put your faith in a loud guitar

(refrão)
 A chord diagramBB                F#/A#      A chord diagramG# minorG#m             G#m/F#
God gave rock and roll to you, gave rock and roll to you
A chord diagramE MajorE              A chord diagramG MajorG  A chord diagramA majorA   A chord diagramBB
Gave rock and roll to everyone (oh yeah)
 A chord diagramBB                F#/A#      A chord diagramG# minorG#m             G#m/F#
God gave rock and roll to you, gave rock and roll to you
A chord diagramE MajorE              A chord diagramG MajorG  A chord diagramA majorA   A chord diagramBB
Put it in the soul of everyone

"Now listen"
A chord diagramE MajorE                             A chord diagramA majorA
If you wanna be a singer, or play guitar
A chord diagramE MajorE                            A chord diagramA majorA
Man, you gotta sweat or you won't get far
A chord diagramG MajorG                                  A chord diagramD MajorD
Cause it's never too late to work nine-to-five
A chord diagramE MajorE                                 A chord diagramA majorA
You can take a stand, or you can compromise
A chord diagramE MajorE                                A chord diagramA majorA
You can work real hard or just fantasize
         A chord diagramG MajorG                          A chord diagramD MajorD      A chord diagramF#F# A chord diagramG#G# A chord diagramA#A#
But you don't start livin' till you realize - "I gotta tell ya!"

A chord diagramD#D#                A chord diagramBb/DBb/D       A chord diagramC minorCm              A chord diagramCm/BbCm/Bb
God gave rock and roll to you, gave rock and roll to you
A chord diagramG#G#             A chord diagramBB  A chord diagramC#C#  A chord diagramD#D#
Gave rock and roll to everyone
A chord diagramD#D#                A chord diagramBb/DBb/D       A chord diagramC minorCm              A chord diagramCm/BbCm/Bb
God gave rock and roll to you, gave rock and roll to you
A chord diagramG#G#             A chord diagramF#F#  A chord diagramC#C#
Put it in the soul

(instrumental break)
(A chord diagramD#D# A chord diagramG#G# A chord diagramC#C# A chord diagramD#D# A chord diagramG#G# A chord diagramC#C# A chord diagramF#F# A chord diagramC#C#)2X A chord diagramD#D# A chord diagramC#C# A chord diagramA#A# A chord diagramD#D#

A chord diagramG#G#                D#/G
God gave rock and roll to you (to everyone he gave the song to be sung)
A chord diagramF minorFm            Fm/D#         A chord diagramC#C#            A chord diagramF#F#     A chord diagramG#G#
Gave rock and roll to you, gave rock and roll to everyone
A chord diagramG#G#                D#/G
God gave rock and roll to you (to everyone he gave the song to be sung)
A chord diagramF minorFm            Fm/D#         A chord diagramC#C#            A chord diagramF#F#     A chord diagramG#G#
Gave rock and roll to you, saved rock and roll for everyone
Saved rock and roll

(solo)

E|-----8brbr-----8-12brbr-8-10b-10--------12brbr-8---11b-11--8------8-10-12-14-14b-14|
B|---9------9-11---------------------9br-9--------11-----------9-11------------------|
G|-8-------------------------------8-------------------------------------------------|
D|-----------------------------------------------------------------------------------|
A|-----------------------------------------------------------------------------------|
E|-----------------------------------------------------------------------------------|


E|-x-12b-10b-----------------------------------------------------------------------|
B|-x---------------------------------------12~----------12~----------14-12---------|
G|-x--------12-10----10-----------12-10-12-----12-10-12-----12-10-12-------12------|
D|-x--------------12----12-10-------------------------------------------------10~/-|
A|-x---------------------------10~-------------------------------------------------|
E|-x-------------------------------------------------------------------------------|


E|-----------------------------|
B|-----------------------------|
G|-----------------------------|
D|-11-9------------------------|
A|------11---------------------|
E|---------9~------------------|


(refrão)

"I know life sometimes can get tough! And I know life sometimes can be a drag!
But people, we have been given a gift, we have been given a road

Almost there ...

Sign in to get your own page with links to favourite songs and more. You are just one click away...

Login with Facebook Login with Google