Search tabs and chords

Search for song, artist or band

Log in

One click and you are in

Login with Facebook Login with Google

Why sign up and log in

Guitar Tabs Explorer
Kiss guitar tabs for God gave rock n roll

Guitar tabs

God Gave Rock n Roll To You

by Kiss

tune down 1/2 step

intro

-5----------6----------3---------
-6----------6----------4---------
-5----------3----------3----------
-3-3-3-3-3-3--3-3-3-3-1-1-1-1-1-
------------------------------
------------------------------

-4----------2---------3---------
-4----------3---------3----------
-1----------2---------3----------
-1-1-1-1-1-0-0-0-0-0-5----------
-----------------------5-5-5-5-5-
------------------------------

-3----------3----------5----------6
-3----------3----------6----------6
-4----------5----------5----------7
-5----------5-5-5-5-5--7-7-7-7-7-8
-5-5-5-5-5------------------------
------------------------------

-13--------11----10----11--9---13-
-15-12-12-13-10-11-12-13--10--15-
-14-12-12-12-10-10-12-12--9---14-
----12-12-----10----12------------
------------------------------
------------------------------

------------------------------
---12-------12-----------------
---12-------12------------------
---12-------12----------2-3----
----------------2-3-5-5---------
-3----3-3-3---------------------

intro solo

-------------------------------
------------------------------
-9-12-12-9-12b-12-14---5-7-5-7b-
-----------------------7------
------------------------------
------------------------------

------------------------------
-8-----------------------------
---7p5-7---5---5h7p5---7v-5-7p5-
---------7---7--------7----------
------------------------------
------------------------------

----------------------------
---8-10---8v----------------
-9------9--------------------
-----------------------------
-----------------------------
-----------------------------

God gave rock n roll...
------------------------------
-----5-------5------------------
-----5-5-----5-5-----1-------1----
---5-------5-------2---2---2---2--
-3-------2-------0---------------
-------------------------3-----

------------------------------
-------------1-----------------
-----1-------2-3-----3--5-----
---2---2---3------6--3--5-----
------------------6--1--3-----
-3-------1--------4------------

verses  (in brackets play 2X)

------------------------------
--------10----------11--------
-(---10----10----10----10)----
--10----------10--------------
------------------------------
------------------------------

------------------------------
--------9----9p8-----9-8-8-9--
------8---10-----8-8-8-8-8-8--
-8h10--------------8-----------
------------------------------
------------------------------

bracket play 4X

------------------------------
---12-----14----14-----16-16-16-
-(----12)-----14----14--16-16-16-
------------------------16-16-16-
------------------------------
------------------------------

------------------------------
-----9-------9-------5--------2----
-----9-9-----9-9-----5-6---4-2--4-
---9---9---9---9---6-----2---------
---------6-------4--------------
-0-----------------------------

-------------------3-----------
-----2-------------3-----------
---2-2-2-5--7--9--0-----------
-0-------5--7--9--0-----------
---------3--5--7---2----------
-------------------3----------

chorus

God gave rock n roll...
------------------------------
-----5-------5------------------
-----5-5-----5-5-----1-------1----
---5-------5-------2---2---2---2--
-3-------2-------0---------------
-------------------------3-----

---------------------
-----1--------------5---
-------2-----3------5----8--12--
---3------6--3----5---5--8--12--
----------6--1--3--------6--10--
-1--------4------------------

rhythm during solo

-------2--------------
-------3--------------
-----2-2----2--12--12--7--
-4-2-2-0-2--2--12--12--7--
-4-2-0---2--0--10---9--5--
-2-0-----0--------------

---------------------
---------------------
-------2-2-2---7--7-7-7-7-
-3--2--2-2-2---7--7-7-7-7-
-3--2--0-0-0---5--5-5-5-5-
-1--0------------------

rhythm after solo

--------------2-----0-2-
-------5---5--x-5-------5-
-----2---2----x---4------
---2----------2--------
-0--------------------
---------------------

-------2-------2-------2
---------2-------2-------2
-4---2-------2-------2---
---4-------2-------2----
---------------------
---------------------

-----------2-------2-----2
-----2-----------2---2--
---2---2-------2-------2-
-1-------2---0----------
---------------------
---------------------

---------------------
---------1-0--------2--
-------2---2------2---2--
-----3----------2-------2
--------------0-------
-0-3-------------------

---------------------
-2-------2-----2--------
-------2---2-----------
-----2-------2---------
---------------------
---0------------------

------------3---------
------------3---------
---4-2--7---3-------12--
-4-4-2--7-5-5-------12--
-4-2-0--5-5-5-------12--
-2--------3-3-3-3-3------

---------------------
---------------------
---------------------10-12
-----------10-12-14--------
-10-12-14------------------
---------------------

---------------------
---------------------
---------------------
--------------10-12-10v-
-10-12-14-14------------
---------------------

fade with chorus

Other versions of God Gave Rock N Roll

God gave rock n roll to youChords

Almost there ...

Sign in to get your own page with links to favourite songs and more. You are just one click away...

Login with Facebook Login with Google