Search tabs and chords

Search for song, artist or band

Log in

One click and you are in

Login with Facebook Login with Google

Why sign up and log in

Guitar Tabs Explorer
Kiss bass tabs for Firehouse

Bass tabs

Song Title: Firehouse
----------------------------------------------

Verse/Main Riff/Chorus

G------------------------------------
D------------------------------------
A---------------------------9-7-9-7-9
E--5--3-0-3-0--5-5-3-0-3-0-----------
Bridge

G-----------------------
D-----------------------
A-----------------------
E--5-5--7-7--9-9--11-11-


Ending on Alive!

G------------------------
D------------------------
A------------------------
E-0-9-0-9-0-9-0-9-0-9-0-9


Outro
G-------------------
D-------------------
A--10-9-7-9-7-9-9-9-
E------------------5


Have fun! "You wanted the best,and you got the best, the hottest band in the
world, KISS!!"

Almost there ...

Sign in to get your own page with links to favourite songs and more. You are just one click away...

Login with Facebook Login with Google