Guitar Tabs Explorer
Kiss bass tabs for Deuce

Deuce bass tab


5 / 5 [1 vote]

Deuce bass tab by Kiss

Bass tabs

Print

Tabbed By :Edward Griggy
e-mail: fastedjuan247@aol.com

Tuning:1/2 step down to e flat

G|---------------------------------------------------------------------------|
D|------------|-------------------------------------------------------------|
A|------2-4-22|2-4-2------------------------------------------------------------|
E|-4444--------------4-2-----------------------------------------------------------|
	After guitar intro...throw in gene`s slide..play rif 4x


G|---------------------------------------------------------------------------|
D|---------------------------------------------------------------------------|
A|---2-4-2----------------------------------------------------------------------|
E|-4-------(4)-------------------------------------------------------------------|
	for the verses play this putting 1st rif in between verses 3x


G|---------------------------------------------------------------------------|
D|---------------------------------------------------------------------------|
A|-2-234-------.repeat(2x)------------------------------------------------------------------|
E|------234--2-.------------0--222----------------------------------------------------|
	chorus play

Comment this song and these bass tabs

Do you have corrections, comments on the bass tabs, thoughts about the song or a message to the author? Write them below.