Guitar Tabs Explorer
Kiss guitar tabs for Anything for my baby

Anything For My Baby tab


Be the first to rate

Anything For My Baby tab by Kiss

Guitar tabs

Print

id WAA06381; Mon, 14 Mar 1994 22:31:45 -0800

>
>To:robs@violet
>
>"Anything for my baby" by Kiss
>
>Off the album, Dressed to Kill
>
>Tune down 1/2 step
>
>transcribed by Rob Schenk
>
>intro
>
>---------------------
>---------------------
>-9-9-9-9--11/13/11--
>-9-9-9-9--11/13/11--
>-7-7-7-7---9/11/9---
>---------------------
>
>---------------------
>---------------------
>-9-9-9-9--11/13/11--
>-9-9-9-9--11/13/11--
>-7-7-7-7---9/11/9---
>---------------------
>
>---------------------
>---------------------
>---x-9-9-x----------
>-9-x-9-9-x-9--------
>-9-x-7-7-x-9---------
>-7---------7---------
>
>verse
>
>---------------------
>---------------------
>-9-9-7-7-9-7-9-7----
>-9-9-5-5-5-5-5-5----
>-7-7-------------------
>---------------------
>
>---------------------
>---------------------
>-9-9-11-9-11-9-------
>-7-7-7--7-7--7-------
>---------------------
>---------------------
>
>---------------------
>---------------------
>--7-7-9-7-9-7----
>--5-5-5-5-5-5----
>--------------------
>---------------------
>
>---------------------
>---------------------
>-9-9-11-9-11-9-------
>-7-7-7--7-7--7-------
>---------------------
>---------------------
>
>---------------------
>---------------------
>--7-7-9-7-2-4-2-2-4-
>--5-5-5-5-2-4-2-2-4
>-----------0-2-0-0-2-
>---------------------
>
>chorus
>
>---------------------
>---------------------
>---------------------
>-9-9-9-9------------
>-9-9-9-9-------------
>-7-7-7-7-------------
>
>---------------------
>---------------------
>-9-9-9-9--11/13/11--
>-9-9-9-9--11/13/11--
>-7-7-7-7---9/11/9---
>---------------------
>

Comment this song and these guitar tabs

Do you have corrections, comments on the guitar tabs, thoughts about the song or a message to the author? Write them below.