Search tabs and chords

Search for song, artist or band

Log in

One click and you are in

Login with Facebook Login with Google

Why sign up and log in

Guitar Tabs Explorer
Kiss guitar tabs for Anything for my baby

Guitar tabs

Off the album, Dressed to Kill

Tune down 1/2 step

transcribed by Rob Schenk
intro
---------------------
---------------------
-9-9-9-9--11/13/11--
-9-9-9-9--11/13/11--
-7-7-7-7---9/11/9---
---------------------

---------------------
---------------------
-9-9-9-9--11/13/11--
-9-9-9-9--11/13/11--
-7-7-7-7---9/11/9---
---------------------

---------------------
---------------------
---x-9-9-x----------
-9-x-9-9-x-9--------
-9-x-7-7-x-9---------
-7---------7---------


verse
---------------------
---------------------
-9-9-7-7-9-7-9-7----
-9-9-5-5-5-5-5-5----
-7-7-------------------
---------------------

---------------------
---------------------
-9-9-11-9-11-9-------
-7-7-7--7-7--7-------
---------------------
---------------------

---------------------
---------------------
--7-7-9-7-9-7----
--5-5-5-5-5-5----
--------------------
---------------------

---------------------
---------------------
-9-9-11-9-11-9-------
-7-7-7--7-7--7-------
---------------------
---------------------

---------------------
---------------------
--7-7-9-7-2-4-2-2-4-
--5-5-5-5-2-4-2-2-4
-----------0-2-0-0-2-
---------------------


chorus
---------------------
---------------------
---------------------
-9-9-9-9------------
-9-9-9-9-------------
-7-7-7-7-------------

---------------------
---------------------
-9-9-9-9--11/13/11--
-9-9-9-9--11/13/11--
-7-7-7-7---9/11/9---
---------------------

Almost there ...

Sign in to get your own page with links to favourite songs and more. You are just one click away...

Login with Facebook Login with Google