Log in

One click and you are in

Login with Facebook Login with Google

Why sign up and log in

Guitar Tabs Explorer
The Kinks tabs for Wild thing

Guitar tabs

this song is easy, it's put in the two main riffs.
just keep repeating the two throughout the whole song.

                       *=let ring

riff 1

E[---------------------------------------------------
B[-----7-7-7-9-9-7-7-7-------------------------------
G[-6-6-7-7-7-9-9-7-7-7-------------------------------
D[-7-7-7-7-7-9-9-7-7-7-------------------------------
A[-7-7-5-5-5-7-7-5-5-5-------------------------------
E[-5-5-----------------------------------------------


riff 2

E[---------------------------------------------------
B[---------------------------------------------------
G[-6*---4-6-4----------------------------------------
D[-7----5-7-5----------------------------------------
A[-7----5-7-5----------------------------------------
E[-5----3-5-3----------------------------------------

Almost there ...

Sign in to get your own page with links to favourite songs and more. You are just one click away...

Login with Facebook Login with Google