Log in

One click and you are in

Login with Facebook Login with Google

Why sign up and log in

Guitar Tabs Explorer
Kings Of Leon tabs for Youth and young manhood album

Youth And Young Manhood Album tab - Kings Of Leon

Kings Of Leon tabs for Youth and young manhood album

Guitar tabs

DATE:                   Wednesday, 3rd December 2003.

FILE DESCRIPTION:       A chord diagramA augmentedA Chord and TAB book for the album:
                        "Youth & Young Manhood" by the Kings Of Leon.

WRITER'S NOTES:         First off, a big thank you to all the people who have e-mailed
                        me to say well done for doing the TAB. So many have struggled
                        to find anything suitable.

                        So here it is! The complete chord & TAB book to the best
                        debut album since Definitely Maybe! I've worked everything out
                        as best I can, but Caleb's southern drawl is kinda hard to get
                        to grips with on a couple of songs; mostly the middle 8 part
                        on "Trani", but I think it's as near as I'm gonnae get.

                        Here's a few details of what I used to gather information:
                        "SPIRAL STAIRCASE", "MOLLY'S CHAMBERS" and "JOE'S HEAD" were
                        all on BBC1 Scotland, which showed 6 programs from "T In The
                        Park", 2003.(I was there and the Kings were fantastic!) 3 of
                        the shows had the Kings on, so I managed to get the lyrics and
                        chords worked out better. "CALIFORNIA WAITING" was played on
                        "FRIDAY NIGHT WITH JONATHAN ROSS" on BBC1, so again I got a
                        good look at what was being played. "MOLLY'S CHAMBERS" was also
                        played on the "LATE SHOW WITH DAVID LETTERMAN". Various videos, TV
                        appearances and photos were also used. I ripped the tracks to MP3
                        and loaded them into GOLDWAVE - (www.goldwave.com) which has
                        excellent facilities to swap channels, isolate vocals etc. It was
                        a lot easier, and more informative than just listening to the CD
                        via your stereo and some headphones! Although I did use my
                        headphones too. You'll see on the "HAPPY ALONE" track that
                        Matthew plays in Drop D; Caleb stays in Standard tuning
                        throughout the album. Also, on "GENIUS", Matthew uses Open A chord diagramG+G
                        tuning. I know this because the Kings, well Matthew, was
                        interviewed in the September 2003 issue of GUITAR magazine,
                        (The one with The Darkness (Great Band) on the cover) and he said
                        that the only time the machineheads deviate from standard tuning
                        is on the two said tracks. I originally got the best part of the
                        lyrics from the excellent, HAPPYALONE.COM, (www.happyalone.com)
                        website but some of them weren't right, so using the vocal
                        isolation technique on GOLDWAVE, I sorted out most of the ropey
                        lyrics.

                        I hope this will be of use to you; it should be!
                        You can use this as and when/where you like. Please don't use
                        it for profit; It wasn't created for that! Webmasters can use this
                        file without my permission, just as long as I am credited as the
                        author.

                        Thanks again, and HAVE FUN!
                        Deano.

CONTACT INFORMATION:    If you wish to get in touch for whatever reason, you can contact
                        me at - the.scotsman@blueyonder.co.uk

OTHER INFORMATION:      "(.)" in the Chord part = Let Chord Ring.
                        "N.C." = No Chord Played.
                        "P.M." = Palm Mute.

****************************************************************************************
****************************************************************************************

                                    KINGS OF LEON
                               "YOUTH & YOUNG MANHOOD"

                                      TRACKLIST

TRACK 01 - RED MORNING LIGHT
TRACK 02 - HAPPY ALONE
TRACK 03 - WASTED TIME
TRACK 04 - JOE'S HEAD
TRACK 05 - TRANI
TRACK 06 - CALIFORNIA WAITING
TRACK 07 - SPIRAL STAIRCASE
TRACK 08 - MOLLY'S CHAMBERS
TRACK 09 - GENIUS
TRACK 10 - DUSTY
TRACK 11 - HOLY ROLLER NOVOCAINE
TRACK 12 - TALIHINA SKY (HIDDEN BONUS TRACK)


****************************************************************************************
****************************************************************************************


Group/Singer Name:      Kings Of Leon
Additional Info:        Youth & Young Manhood - Track 01
Tabbed By:              Dean Hill - Comments, Suggestions? the.scotsman@blueyonder.co.uk


[Chords Used]   B(799877); A(577655); G(355433); F#(244322); E(022100)


[Intro]           |A chord diagramBB         |A chord diagramA augmentedA      A chord diagramG+G    A chord diagramF#F#  |A chord diagramE MajorE        |
                e ---------------------------------------
                A chord diagramBB -----------------------------000000000-
                A chord diagramG+G -8888888-XX-666-XX-4-XX-3-XX-111111111-
                A chord diagramD MajorD -9999999-XX-777-XX-5-XX-4-XX-222222222-
                A chord diagramA augmentedA -9999999-XX-777-XX-5-XX-4-XX-222222222-
                A chord diagramE MajorE -7777777-XX-555-XX-3-XX-2-XX-000000000-


[Verse 1]                                  A chord diagramBB
                You know you coulda been a wonder,
                                           A chord diagramE MajorE
                Takin' your circus to the sky-y-y
                                            A chord diagramBB
                You couldn't take it on the tightrope,
                                              A chord diagramE MajorE
                No, you had to take it on the side,
                                        A chord diagramBB
                You always like it undercover,
                                             A chord diagramE MajorE
                Tucked in between your dirty she-e-ets,
                                          A chord diagramBB
                But no one's even evident to ya,
                A chord diagramA augmentedA              A chord diagramG+G       A chord diagramF#F#      A chord diagramE MajorE
                In between the hollers and the scre-e-eams.


[Chorus 1]
                And a said nah nah,
                A chord diagramBB                A chord diagramA augmentedA                A chord diagramG+G     A chord diagramF#F#     A chord diagramE MajorE
                Hey hey, another dirty bird ain't givin' out a taste, hey,
                       A chord diagramBB                            A chord diagramA augmentedA           A chord diagramG+G    A chord diagramF#F#   A chord diagramE MajorE
                In the black of the night, 'til the red morning light.


[Verse 2]                                A chord diagramBB
                You got your cosy little corner,
                                               A chord diagramE MajorE
                All night your jammin' on your di-i-ick
                                            A chord diagramBB
                And hangin' out just like a street sign,
                                           A chord diagramE MajorE
                And pulled a twenty dollar tri-i-ick,
                                              A chord diagramBB
                I hear you're blowin' like a feather,
                                             A chord diagramE MajorE
                And then they rub it in your fa-a-ace,
                                                A chord diagramBB
                Oh once they've had all they're fun, hun,
                A chord diagramA augmentedA               A chord diagramG+G      A chord diagramF#F#     A chord diagramE MajorE
                You'll work the bottom of the ca-a-age.


[Chorus 2]
                And a said nah nah,
                A chord diagramBB                A chord diagramA augmentedA                A chord diagramG+G     A chord diagramF#F#     A chord diagramE MajorE
                Hey hey, another dirty bird ain't givin' out a taste, hey,
                       A chord diagramBB                            A chord diagramA augmentedA           A chord diagramG+G    A chord diagramF#F#    A chord diagramE MajorE
                In the black of the night, 'til the red morning light.

                And a said nah nah,
                A chord diagramBB                A chord diagramA augmentedA             A chord diagramG+G     A chord diagramF#F#  A chord diagramE MajorE
                Hey hey, you're givin all your cinnamon away-ey,
                                   | A chord diagramBB | A chord diagramA augmentedA A chord diagramG+G A chord diagramF#F# | A chord diagramE MajorE |
                That's not right!       Aaaarrrrrggggghhhhh!


[Solo]          | A chord diagramBB | A chord diagramA augmentedA A chord diagramG+G A chord diagramF#F# | A chord diagramE MajorE | A chord diagramE MajorE |
                | A chord diagramBB | A chord diagramA augmentedA A chord diagramG+G A chord diagramF#F# | A chord diagramE MajorE | A chord diagramE MajorE |<----------(Everything drops out apart from drums)


[Middle 8]
                Hey hey, another dirty bird ain't givin' out a taste,

                Ah hey, keep on givin' away and givin' it away, (givin' it away)
(Bass Enters)--->
                But hey-heh-hey, you're givin' all your cinnamon away-ey-ey-ey,
(Guitar Enters)--------------------------------------------------> | A chord diagramBB | A chord diagramA augmentedA |
                Ah hey hey, you're givin' all your cinnamon away.


[Outro]            A chord diagramBB                A chord diagramA augmentedA                A chord diagramG+G     A chord diagramF#F#     A chord diagramE MajorE
                Ah hey hey, another dirty bird ain't givin' out a taste, hey,
                       A chord diagramBB                            A chord diagramA augmentedA           A chord diagramG+G     A chord diagramF#F#   A chord diagramE MajorE
                In the black of the night, 'til the red morning light.

                And a said nah nah,
                A chord diagramBB                A chord diagramA augmentedA             A chord diagramG+G     A chord diagramF#F#  A chord diagramE MajorE
                Hey hey, you're givin all your cinnamon away-ey,
                                 | A chord diagramBB | A chord diagramA augmentedA      A chord diagramG+G A chord diagramF#F# | A chord diagramE MajorE |
                That's not right!      Aaooww!        C'Mon!

                And a said nah nah,
                A chord diagramBB                A chord diagramA augmentedA                A chord diagramG+G     A chord diagramF#F#     A chord diagramE MajorE
                Hey hey, another dirty bird ain't givin' out a taste, hey,
                       A chord diagramBB                            A chord diagramA augmentedA           A chord diagramG+G     A chord diagramF#F#   A chord diagramE MajorE
                In the black of the night, 'til the red morning light.

                And a said nah nah,
                A chord diagramBB                A chord diagramA augmentedA             A chord diagramG+G     A chord diagramF#F#  A chord diagramE MajorE
                Hey hey, you're givin all your cinnamon away-ey.


[Ending]        | A chord diagramBB | A chord diagramA augmentedA A chord diagramG+G A chord diagramF#F# | E(.)




            **********************************************
            *KINGS OF LEON - RED MORNING LIGHT LEAD PARTS*
            **********************************************


b  -  Bend
() -  Bracketed numbers are the note you bend up to
h  -  Hammer On
p  -  Pull Off
r  -  Return
/  -  Slide Up
\  -  Slide Down
d  -  Strum Down
u  -  Strum Up
PM -  Palm Mute
NH -  Natural Harmonics
^  -  Vibrato



NOTE: Lead guitar mirrors rhythm parts 'til solo. (As far as I can work out)
      Then mirrors again 'til end of song.


[SOLO]
   d u d u d u d u d u d u d u d u    d u d u d u d u d u d u d u d u
A chord diagramE MajorE -12121212121212121212121212121212-|-12121212121212121212121212121212-
A chord diagramBB -12121212121212121212121212121212-|-12121212121212121212121212121212-
A chord diagramG+G ----------------------------------|----------------------------------
A chord diagramD MajorD ----------------------------------|----------------------------------
A chord diagramA augmentedA ----------------------------------|----------------------------------
A chord diagramE MajorE ----------------------------------|----------------------------------

  -12-------12----12----12--15b(17)-|-(17)-(17)-(17)-(17)r15--12-------
  -12h15p12----15----15-------------|----------------------------------
  ----------------------------------|----------------------------------
  ----------------------------------|----------------------------------
  ----------------------------------|----------------------------------
  ----------------------------------|----------------------------------

  -12------------------12-----------|-12-------------------------------
  -12--15-12-15b(17)r15----15-------|----15-12-------------------------
  -12-------------------------------|----------14b(16)r14-12-14--------
  ----------------------------------|----------------------------------
  ----------------------------------|----------------------------------
  ----------------------------------|----------------------------------

  ----------------------------------|
  ---------12-12----12----12\-------|
  -14b(16)-12----14----14-12\-------|
  ----------------------------------|
  ----------------------------------|
  ----------------------------------|



[OUTRO] - In the outro, just after the "...C'Mon!" bit, the lead plays this:

e ----------------------------------|
A chord diagramBB ----------------------------------|
A chord diagramG+G ----------------------------------|
A chord diagramD MajorD -7b(9)-(9)-7p5--5-----------------|
A chord diagramA augmentedA --------------7-------------------|
A chord diagramE MajorE ----------------------------------|




****************************************************************************************
****************************************************************************************


Group/Singer Name:      Kings Of Leon
Additional Info:        Youth & Young Manhood - Track 02

Tuning:                 Rhythm (Caleb) - Standard / Lead (Matthew) - Drop D: [DADGBe]
Tabbed By:              Dean Hill - Comments, Suggestions? the.scotsman@blueyonder.co.uk


[Chords Used]   D([10][12][12][11][10][10]); G(355433); B(79987X); A(57765X);
                G*(35543X)


[Intro]         | A chord diagramD MajorD | A chord diagramD MajorD | A chord diagramD MajorD | A chord diagramD MajorD |
                | A chord diagramG+G | A chord diagramG+G | A chord diagramG+G | A chord diagramG+G |


[Verse 1]     A chord diagramD MajorD
                On our way, and so it seems, blooming flowers waltz be-fore me,
              A chord diagramG+G
                Rollin' numbers, passin' time, got to get out-side the city.
              A chord diagramD MajorD
                In the mornin', all will see, just how crazy young love can be,
              A chord diagramG+G
                On our own, away again, don't get down my darlin'.


[Chorus 1]                        A chord diagramD MajorD
                A chord diagramA minorAm gone tangle my face hair, a gone tickle your daughter,

                At three o'clock in the morning, they all cry to me,
                                              A chord diagramG+G
                I'll be prancin' around in my high heels, and your cherry lipstick,

                Look outta your window, I'm on your street.


[Verse 2]     A chord diagramD MajorD
                Miles away, so unclear, almost lost it in Montana,
              A chord diagramG+G
                Let's pull over, have us a choke, I love to watch you when your dancin'.
              A chord diagramD MajorD
                I wonder if they, ever dream, they would get just what we gave them,
              A chord diagramG+G
                All wrapped up in, bein' nineteen, chasin' stars that are fallin'.


[Chorus 2]                        A chord diagramD MajorD
                A chord diagramA minorAm gone tangle my face hair, gone tickle your daughter,

                At three o'clock in the mornin', they all cry to me,
                                              A chord diagramG+G
                I'll be prancin' around in my high heels, and your cherry lipstick,

                Look out your window, and that's where I'll be, C'Mon Caleb, Aaooww!


[Solo]          | A chord diagramD MajorD | A chord diagramD MajorD | A chord diagramD MajorD | A chord diagramD MajorD |
                | A chord diagramG+G | A chord diagramG+G | A chord diagramG+G | A chord diagramG+G |


[Middle 8]   A chord diagramBB                             A chord diagramA augmentedA
                And when that train heads home,
                                  A chord diagramD MajorD
                They' gone be so, gone gone you ain't never gonna see me no more,

                Gone gone you ain't nothin' to me,
             G*                             A chord diagramA augmentedA                       | A chord diagramBB  | A chord diagramBB  |
                And when they shine them streets, they only find our song!


[Link]          | A chord diagramD MajorD | A chord diagramD MajorD | A chord diagramD MajorD | A chord diagramD MajorD |
                | A chord diagramG+G | A chord diagramG+G | A chord diagramG+G | A chord diagramG+G |


[Chorus 3]                        A chord diagramD MajorD
                A chord diagramA minorAm gone tangle my face hair, a gone tickle your daughter,

                At three o'clock in the mornin', they all cry to me,
                                              A chord diagramG+G
                I'll be prancin' around in my high heels, and your cherry lipstick,

                Look out your window, and that's where I'll be.
                                  A chord diagramD MajorD
                A chord diagramA minorAm gone tangle my face hair, gone tickle your daughter,

                At three o'clock in the mornin', they all cry to me,
                                              A chord diagramG+G
                I'll be prancin' around in my high heels, your cherry lipstick,

                Look outta your window, and that's where I'll be.

                C'Mon Caleb, Caleb, Caleb, Caleb, Caleb.


[Outro]         | A chord diagramD MajorD | A chord diagramD MajorD | A chord diagramD MajorD | A chord diagramD MajorD |

                              A chord diagramG+G
                I'm on your street, they all cry to me.

                I'm on your street, they all cry to me.
                              A chord diagramD MajorD
                I'm on your street, they all cry to me.

                I'm on your street, they all cry to me.
                            | A chord diagramG+G | A chord diagramG+G | A chord diagramG+G | A chord diagramG+G |
                I'm on your...

                              A chord diagramD MajorD
                I'm on your street, they all cry to me.
                                                    D(.)
                I'm on your street, they all cry to me.



                ****************************************
                *KINGS OF LEON - HAPPY ALONE LEAD PARTS*
                ****************************************


b  -  Bend
() -  Bracketed numbers are the note you bend up to
h  -  Hammer On
p  -  Pull Off
r  -  Return
/  -  Slide Up
\  -  Slide Down
d  -  Strum Down
u  -  Strum Up
PM -  Palm Mute
NH -  Natural Harmonics
^  -  Vibrato



[INTRO]
   1 & 2 & 3 & 4 &  1 & 2 & 3 & 4 &   1 & 2 & 3 & 4 &   1 & 2 & 3 & 4 &
e ----------------|-----------------|-----------------|-----------------|
A chord diagramBB ----------------|-----------------|-----------------|-----------------|
A chord diagramG+G ----------------|-----------------|-----------------|-----------------|
A chord diagramD MajorD ----------------|-----------------|-----------------|-----------------|
A chord diagramA augmentedA ----------------|-----------------|-----------------|-----------------|
A chord diagramD MajorD -0--------------|-----------------|-0---------------|----------2--4---|

   1 & 2 & 3 & 4 &  1 & 2 & 3 & 4 &   1 & 2 & 3 & 4 &   1 & 2 & 3 & 4 &
  ----------------|-----------------|-----------------|-----------------|
  ----------------|-----------------|-----------------|-----------------|
  ----------------|-----------------|-----------------|-----------------|
  ----------------|-----------------|-----------------|-----------------|
  ----------------|-----------------|-----------------|-----------------|
  -5--------------|/9---------------|/12--------------|\5-------7-------|

   1 & 2 & 3 & 4 &
  ----------------|
  ----------------|
  ----------------|
  ----------------|
  ----------------|
  -0--------------|



[VERSE 1] - NOTHING PLAYED



[CHORUS 1]
e ----------------------------------------------------------------------
A chord diagramBB ----------------------------------------------------------------------
A chord diagramG+G -5-4----5--4----------------------------5-4----5--4--------------------
A chord diagramD MajorD -----7-------7-5--[TIMES 7, THEN PLAY]------7-------0-7----------------
A chord diagramA augmentedA ----------------------------------------------------0------------------
A chord diagramD MajorD ----------------------------------------------------0------------------



[VERSE 2] X2
e --------------------------------------------------------------------------
A chord diagramBB --------------------------------------------------------------------------
A chord diagramG+G --------------------------------------------------------------------------
A chord diagramD MajorD -4-4-4-4-4-4-7-7-4-4-4-4-4-4-7-7-4-4-4-4-4-4-7-7-4-4-4-7-7-7-4-4/---------
A chord diagramA augmentedA -5-5-5-5-5-5-5-5-5-5-5-5-5-5-5-5-5-5-5-5-5-5-5-5-5-5-5-5-5-5-5-5/---------
A chord diagramD MajorD --------------------------------------------------------------------------

  --------------------------------------------------------------------------
  --------------------------------------------------------------------------
  --------------------------------------------------------------------------
  --9--9--9--9--9--9-12-12--9--9--9--9--9--9-12-12--9--9--9--9--9--9-12-12--
  -10-10-10-10-10-10-10-10-10-10-10-10-10-10-10-10-10-10-10-10-10-10-10-10--
  --------------------------------------------------------------------------

  --------------------------------------------------------------------------
  --------------------------------------------------------------------------
  --------------------------------------------------------------------------
  --9--9--9-12-12-12--9--9\-------------------------------------------------
  -10-10-10-10-10-10-10-10\-------------------------------------------------
  --------------------------------------------------------------------------



[CHORUS 2] X8
e -----------------
A chord diagramBB -----------------
A chord diagramG+G -5-4----5--4-----
A chord diagramD MajorD -----7-------7-5-
A chord diagramA augmentedA -----------------
A chord diagramD MajorD -----------------



[SOLO]
e -----------------------------------XX-6-66-66666-666/-----------------
A chord diagramBB -3333-33333-3333--6-66-6666-6-666--XX-5-55-55555-555/-----------------
A chord diagramG+G -2223-22333-2222--7-77-7777-7-777-------------------------------------
A chord diagramD MajorD ----------------------------------------------------------------------
A chord diagramA augmentedA ----------------------------------------------------------------------
A chord diagramD MajorD ----------------------------------------------------------------------

  -10101010-101010-101010-101010----------------------------------------
  -10101010-101010-101010-101010----------------------------------------
  -------------------------------12--12p10----10--12--10-12-10\---------
  -----------------------------------------12---------------------------
  ----------------------------------------------------------------------
  ----------------------------------------------------------------------

  ----------------------------------------------------------------------
  -----------6-------6---8---6---8---6----11--11-11--11-11--8\----------
  ---4---7-------7-------------------------0----------------------------
  -5---5---5---5---5---5---5---5---5------------------------------------
  ----------------------------------------------------------------------
  ----------------------------------------------------------------------


[MIDDLE 8]
   1 & 2 & 3 & 4 &  1 & 2 & 3 & 4 &   1 & 2 & 3 & 4 &   1 & 2 & 3 & 4 &
e ----------------|-----------------|-----------------|-----------------|
A chord diagramBB ----------------|-----------------|-----------------|-----------------|
A chord diagramG+G ----------------|-----------------|-----------------|-----------------|
A chord diagramD MajorD ----------------|-----------------|-0-0-0-----------|-0-0-0-----------|
A chord diagramA augmentedA ----------------|-----------------|-0-0-0-----------|-0-0-0-----------|
A chord diagramD MajorD -9--------------|-7------\--------|-0-0-0-----------|-0-0-0-----------|

   1 & 2 & 3 & 4 &  1 & 2 & 3 & 4 &   1 & 2 & 3 & 4 &   1 & 2 & 3 & 4 &
  ----------------|-----------------|-----------------|-----------------|
  ----------------|-----------------|-----------------|-----------------|
  ----------------|-----------------|-----------------|-----------------|
  ----------------|-----------------|-9---------------|-----------------|
  ----------------|-----------------|-9---------------|-----------------|
  -5--------------|-7---------------|-9---------------|-----------------|


[LINK]
   1 & 2 & 3 & 4 &  1 & 2 & 3 & 4 &   1 & 2 & 3 & 4 &   1 & 2 & 3 & 4 &
e ----------------|-----------------|-----------------|-----------------|
A chord diagramBB ----------------|-----------------|-----------------|-----------------|
A chord diagramG+G ----------------|-----------------|-----------------|-----------------|
A chord diagramD MajorD ----------------|-----------------|-----------------|-----------------|
A chord diagramA augmentedA ----------------|-----------------|-----------------|-----------------|
A chord diagramD MajorD -0--------------|-----------------|-0---------------|----------2--4---|

   1 & 2 & 3 & 4 &  1 & 2 & 3 & 4 &   1 & 2 & 3 & 4 &   1 & 2 & 3 & 4 &
  ----------------|-----------------|-----------------|-----------------|
  ----------------|-----------------|-----------------|-----------------|
  ----------------|-----------------|-----------------|-----------------|
  ----------------|-----------------|-----------------|-----------------|
  ----------------|-----------------|-----------------|-----------------|
  -5--------------|/9---------------|/12--------------|\5-------7-------|

   1 & 2 & 3 & 4 &
  ----------------|
  ----------------|
  ----------------|
  ----------------|
  ----------------|
  -0--------------|



[CHORUS 3] X16
e -----------------
A chord diagramBB -----------------
A chord diagramG+G -5-4----5--4-----
A chord diagramD MajorD -----7-------7-5-
A chord diagramA augmentedA -----------------
A chord diagramD MajorD -----------------



[OUTRO] - This was a pain to TAB. It's pretty much spot-on, but when learning it,
          try to get a feel for the rhythm rather than being EXACT with the TAB.

SLIGHT BEND--------¬-¬
e -5-----------5-----------7p5-5--7-5----5-5----5-5-5-------------------
A chord diagramBB -6-6-6-6-6---6-6-6-6-6-------6----6-6--6-6-6--6-6-6-6-----------------
A chord diagramG+G ------------------------------------7------7--------7-----------------
A chord diagramD MajorD ----------------------------------------------------------------------
A chord diagramA augmentedA ----------------------------------------------------------------------
A chord diagramD MajorD ----------------------------------------------------------------------

BEND UP 1/2---------------------------------------------¬
  -10--------10----10----10----10-10----10------------------------------
  -10--10-13-10----10-10-10-10-10-10-10-10-13p10----10-----------------
  --------------12----12----12-------12----------12-----12-10----10-12--
  ------------------------------------------------------------12-12-----
  ----------------------------------------------------------------------
  ----------------------------------------------------------------------

  ----------10-10-------------------------------------------------------
  -10----10----12b13-10-10-----10-10------------------------------------
  -12b14-------------10-10-10--10-10-10--10-10-10-----------------------
  -------------------------12--------12--12-12-12-----------------------
  ----------------------------------------------------------------------
  ----------------------------------------------------------------------

  ----------------------------------------------------------------------
  -10-10--10-1010-10-10-10-10-10-10-1010-10-10-10-10-1010-10-10---------
  -10-10--10-1010-10-10-10-10-10-12-1010-12-12-12-12-1212-12-12---------
  ----------------------------------------------------------------------
  ----------------------------------------------------------------------
  ----------------------------------------------------------------------

  ----------------------------------------------------------------------
  -10-10--1010-10-10-1010-----------------------------------------------
  -10-10--1010-10-10-1212-----------------------------------------------
  ----------------------------------------------------------------------
  ------------------------X-5--6-7--X-10--11-12--X-5--6-7--X-10--11-12--
  ------------------------X---------X------------X---------X------------

  ----------------------------------------------------------------------
  ----------------------------------------------------------------------
  ----------------------------------------------------------------------
  ----------------------------------------------------------------------
  -X-5--6-7--X-10--11-12--X-5--6-7--X-10--11-12-------------------------
  -X---------X------------X---------X-----------------------------------

  -----------------------------------------0----------------------------
  -----------------------------------------0----------------------------
  -5-4----5--4-----------------------------5----------------------------
  -----7-------7-5--[TIMES 7, THEN STRUM]--0----------------------------
  ----------------------------------------------------------------------
  ----------------------------------------------------------------------



****************************************************************************************
****************************************************************************************


Group/Singer Name:      Kings Of Leon
Additional Info:        Youth & Young Manhood - Track 03
Tabbed By:              Dean Hill - Comments, Suggestions? the.scotsman@blueyonder.co.uk


[Chords Used]   E(022100); D(XX0232); A(X02220); G(320003)


[Intro]         | A chord diagramE MajorE     | A chord diagramE MajorE     | A chord diagramE MajorE     | A chord diagramE MajorE     |


[Verse 1]      (A chord diagramE MajorE)
                Oh it’s your life,

                Don’t you let 'em tell you when to bat your eyes,

                You’re the only one who’s gone sacrifice,

                Makes no difference if you’re right or wrong.

                A chord diagramA augmentedA take that ride,

                But I want your little sister by your side,

                Maybe little later we can all collide,

                Do our lovin’ like a rollin’ stone.


[Bridge]       (A chord diagramE MajorE)
                Your time on me is wasted time,

                Your time on me is wasted time,

                Your time on me is wasted time,

                Your time on me is wasted.


[Chorus]    A chord diagramD MajorD A chord diagramA augmentedA
                Her innocent smile,
            A chord diagramD MajorD A chord diagramA augmentedA                   A chord diagramD MajorD A chord diagramA augmentedA A chord diagramD MajorD A chord diagramA augmentedA A chord diagramD MajorD
                A chord diagramA augmentedA runnin’ free,
                 A chord diagramE MajorE                                      | A chord diagramE MajorE     |
                Baby gone give it like it used to be,
                                                        | A chord diagramE MajorE     |
                Baby gone give it like it used to be.


[Verse 2]      (A chord diagramE MajorE)
                A chord diagramA augmentedA show your face,

                Livin’ in the shadows like you got no name,

                'nough to make a little girly go insane,

                Be my guest and let it out tonight,

                Well it’s ok,

                I know all about the little games you play,

                Shakin’ your apple right in my face,

                Only when you know that I'm a beggin’ for a bite,


[Bridge]       (A chord diagramE MajorE)
                Your time on me is wasted time,

                Your time on me is wasted time,

                Your time on me is wasted time,

                Your time on me is wasted.


[Chorus]    A chord diagramD MajorD A chord diagramA augmentedA
                Her innocent smile,
            A chord diagramD MajorD A chord diagramA augmentedA                   A chord diagramD MajorD A chord diagramA augmentedA A chord diagramD MajorD A chord diagramA augmentedA A chord diagramD MajorD
                A chord diagramA augmentedA runnin’ free,
                 A chord diagramE MajorE                                      | A chord diagramE MajorE     |
                Baby gone give it like it used to be,
                                                        | A chord diagramE MajorE     |
                Baby gone give it like it used to be.


[Solo]          | A chord diagramA augmentedA   A chord diagramG+G | A chord diagramA augmentedA   A chord diagramG+G | A chord diagramA augmentedA   A chord diagramG+G | A chord diagramA augmentedA   A chord diagramG+G |
                | A chord diagramE MajorE     | A chord diagramE MajorE     |

                | A chord diagramA augmentedA   A chord diagramG+G | A chord diagramA augmentedA   A chord diagramG+G | A chord diagramA augmentedA   A chord diagramG+G | A chord diagramA augmentedA   A chord diagramG+G |
                | A chord diagramE MajorE     | A chord diagramE MajorE     | A chord diagramE MajorE     | A chord diagramE MajorE     |


[Bridge]       (A chord diagramE MajorE)
                Time on me is wasted time,

                Time on me is wasted time,

                Time on me is wasted time,

                Time on me is...


[Middle 8]     (A chord diagramE MajorE)
                A chord diagramA minorAm gone get your Momma,

                A chord diagramA minorAm gone get your Paw,

                A chord diagramA minorAm gone tell everybody,

                A chord diagramA augmentedA just a what a saw.

                So won’t you show your face, (Show your face)

                Your little apple shaker, (Show your face!)

                I know the love you give, (Show your face!)

                I know the love you take ah. (Show your face!)


[Outro]     A chord diagramD MajorD A chord diagramA augmentedA
                Her innocent smile,
            A chord diagramD MajorD A chord diagramA augmentedA                   A chord diagramD MajorD A chord diagramA augmentedA A chord diagramD MajorD A chord diagramA augmentedA A chord diagramD MajorD
                A chord diagramA augmentedA runnin’ free,
                 A chord diagramE MajorE                                      | A chord diagramE MajorE     |
                Baby gone give it like it used to be.
            A chord diagramD MajorD A chord diagramA augmentedA
                Her innocent smile,
            A chord diagramD MajorD A chord diagramA augmentedA                   A chord diagramD MajorD A chord diagramA augmentedA A chord diagramD MajorD A chord diagramA augmentedA A chord diagramD MajorD
                A chord diagramA augmentedA runnin’ free,
                 A chord diagramE MajorE                                      | A chord diagramE MajorE     |
                Baby gone give it like it used to be.
                                                        | A chord diagramE MajorE     |
                Baby gone give it like it used to be.
                                                        | A chord diagramE MajorE     |
                Baby gone give it like it used to be.
                                                        | A chord diagramE MajorE
                Baby gone give it like it used to be.



                ****************************************
                *KINGS OF LEON - WASTED TIME LEAD PARTS*
                ****************************************


b  -  Bend
() -  Bracketed numbers are the note you bend up to
h  -  Hammer On
p  -  Pull Off
r  -  Return
/  -  Slide Up
\  -  Slide Down
d  -  Strum Down
u  -  Strum Up
PM -  Palm Mute
NH -  Natural Harmonics
^  -  Vibrato



[INTRO] X4
e ----------------------------------------------------------------------
A chord diagramBB ----------------------------------------------------------------------
A chord diagramG+G ----------------------------------------------------------------------
A chord diagramD MajorD ----------------------------------------------------------------------
A chord diagramA augmentedA ----7----7---/5-------------------------------------------------------
A chord diagramE MajorE -0----0---------------------------------------------------------------



[VERSE 1 & BRIDGE 1] - Nothing played



[CHORUS]
       "...her innocent smile"     "...a runnin' free"
A chord diagramE MajorE ----------------------------------------------------------------------
A chord diagramBB -3---------------------------3---------------------3---3---3----------
A chord diagramG+G -2-2-------------------------2-2-------------------2-2-2-2-2----------
A chord diagramD MajorD ---2---------------------------2---------------------2---2------------
A chord diagramA augmentedA ----------------------------------------------------------------------
A chord diagramE MajorE ----------------------------------------------------------------------

"...baby gone give it like it used to be"
  --0-------------------------------------------------------------------
  --5--------------------------------------3-2-0--3-2-0-----------------
  --4-------------------------------------------------------------------
  ----------------------------------------------------------------------
  ----------------------------------------------------------------------
  ----------------------------------------------------------------------

"...baby gone give it like it used to be"
  --0-------------------------------------------------------------------
  --5--------------------------------------3-2-0--3-2-0-----------------
  --4-------------------------------------------------------------------
  ----------------------------------------------------------------------
  ----------------------------------------------------------------------
  ----------------------------------------------------------------------



[VERSE 2]
   d d d du  dudu d
e ----------------------------------------------------------------------
A chord diagramBB ----------------------------------------------------------------------
A chord diagramG+G ----------------------------------------------------------------------
A chord diagramD MajorD ----------------------------------------------------------------------
A chord diagramA augmentedA ----------------------------------------------------------------------
A chord diagramE MajorE -0-0-0-00--0003-3--[TIMES 7, THEN PLAY]--0-0-0-00--0003---------------



[BRIDGE 2] X4
e ----------------------------------------------------------------------
A chord diagramBB ----------------------------------------------------------------------
A chord diagramG+G ----------------------------------------------------------------------
A chord diagramD MajorD ----------------------------------------------------------------------
A chord diagramA augmentedA ----7----7---/5-------------------------------------------------------
A chord diagramE MajorE -0----0---------------------------------------------------------------


[REPEAT CHORUS]



[SOLO]
e ----------------------------------------------------------------------
A chord diagramBB ----------------------------------------------------------------------
A chord diagramG+G --------0-----0---------0-----0---------0-----0---------0-----0-------
A chord diagramD MajorD -----2-------2-------2-------2-------2-------2-------2-------2--------
A chord diagramA augmentedA -/4------/4------/4------/4------/4------/4------/4------/4-----------
A chord diagramE MajorE ----------------------------------------------------------------------


The next part of the solo uses effects, so I've tabbed it for a dry (no FX)
guitar. It's not perfect by any means, but you can get away with it.


e ----------------------------------------------------------------------
A chord diagramBB -3sb(5)-(5)-(5)sr3---3sb(5)-(5)-(5)sr3---3-3sb(5)-(5)(5)-(5)sr3-------
A chord diagramG+G ----------------------------------------------------------------------
A chord diagramD MajorD ----------------------------------------------------------------------
A chord diagramA augmentedA ----------------------------------------------------------------------
A chord diagramE MajorE ----------------------------------------------------------------------
                                      NH----------------|
  ----------------------------------------------------------------------
  -3b(5)-(5)-(5)-(5)(5)(5)sr3------------<7>----------------------------
  ------------------------------------<5>----<5>-<5>--<4>---------------
  ----------------------------------------------------------------------
  ----------------------------------------------------------------------
  ----------------------------------------------------------------------


[MIDDLE 8]
"...show your face"     "...shaker"    "...give"      "...take ah"
e ----------------------------------------------------------------------
A chord diagramBB ------------3-2-0--3-2-0---3-2-0--3-2-0---3-2-0--3-2-0---3-2-0--3-2-0-
A chord diagramG+G ----------------------------------------------------------------------
A chord diagramD MajorD ----------------------------------------------------------------------
A chord diagramA augmentedA ----------------------------------------------------------------------
A chord diagramE MajorE ----------------------------------------------------------------------



[OUTRO]
       "...her innocent smile"     "...a runnin' free"
A chord diagramE MajorE ----------------------------------------------------------------------
A chord diagramBB -3---------------------------3---------------------3---3---3----------
A chord diagramG+G -2-2-------------------------2-2-------------------2-2-2-2-2----------
A chord diagramD MajorD ---2---------------------------2---------------------2---2------------
A chord diagramA augmentedA ----------------------------------------------------------------------
A chord diagramE MajorE ----------------------------------------------------------------------

"...baby gone give it like it used to be"
  --0-------------------------------------------------------------------
  --5--------------------------------------3-2-0--3-2-0-----------------
  --4-------------------------------------------------------------------
  ----------------------------------------------------------------------
  ----------------------------------------------------------------------
  ----------------------------------------------------------------------

       "...her innocent smile"     "...a runnin' free"
A chord diagramE MajorE ----------------------------------------------------------------------
A chord diagramBB -3---------------------------3---------------------3---3---3----------
A chord diagramG+G -2-2-------------------------2-2-------------------2-2-2-2-2----------
A chord diagramD MajorD ---2---------------------------2---------------------2---2------------
A chord diagramA augmentedA ----------------------------------------------------------------------
A chord diagramE MajorE ----------------------------------------------------------------------

"...baby gone give it like it used to be"
  --0-------------------------------------------------------------------
  --5--------------------------------------3-2-0--3-2-0-----------------
  --4-------------------------------------------------------------------
  ----------------------------------------------------------------------
  ----------------------------------------------------------------------
  ----------------------------------------------------------------------

"...baby gone give it like it used to be"
  --0-------------------------------------------------------------------
  --5--------------------------------------3-2-0--3-2-0-----------------
  --4-------------------------------------------------------------------
  ----------------------------------------------------------------------
  ----------------------------------------------------------------------
  ----------------------------------------------------------------------

"...baby gone give it like it used to be"
  --0-------------------------------------------------------------------
  --5--------------------------------------3-2-0--3-2-0-----------------
  --4-------------------------------------------------------------------
  ----------------------------------------------------------------------
  ----------------------------------------------------------------------
  ----------------------------------------------------------------------

"...baby gone give it like it used to be"
  --0--------------------------------------------------------------------
  --5--------------------------------------------------------------------
  --4-------------------------------------XX-----------------------------
  ----------------------------------------XX-2/--------------------------
  ----------------------------------------XX-2/--------------------------
  ----------------------------------------XX-0---------------------------


****************************************************************************************
****************************************************************************************


Group/Singer Name:      Kings Of Leon
Additional Info:        Youth & Young Manhood - Track 04

Tuning:                 Standard
Tabbed By:              Dean Hill - Comments, Suggestions? the.scotsman@blueyonder.co.uk


[Chords Used]   E(022100); F#m11/C#(X44200); G#m7b13/D#(X66400); Am/E(x7755x)
                Cmaj/G(x[10][10]98x); A(x02220); B(add11)/F#(xx4440)


[Intro]         | A chord diagramE MajorE  F#m11/C#  | G#m7b13/D#  F#m11/C#  |
                | A chord diagramE MajorE  F#m11/C#  | G#m7b13/D#  F#m11/C#  |
                | A chord diagramE MajorE  F#m11/C#  | G#m7b13/D#  F#m11/C#  |
                | A chord diagramE MajorE  F#m11/C#  | G#m7b13/D#  F#m11/C#  |


[Verse 1]    A chord diagramE MajorE             F#m11/C#    G#m7b13/D#  F#m11/C#
                Blistered, cracked and bleeding,
             A chord diagramE MajorE          F#m11/C#    G#m7b13/D#  F#m11/C#
                Cold no-one should know,
             A chord diagramE MajorE             F#m11/C#    G#m7b13/D#  F#m11/C#
                Rain falls down a      freezing,
                    A chord diagramE MajorE               F#m11/C#    G#m7b13/D#  F#m11/C#
                And sticking like a snow.


[Link]          | A chord diagramE MajorE  F#m11/C#  | G#m7b13/D#  F#m11/C#  |
                | A chord diagramE MajorE  F#m11/C#  | G#m7b13/D#  F#m11/C#  |


[Verse 2]    A chord diagramE MajorE        F#m11/C#    G#m7b13/D#  F#m11/C#
                Lingering      suspicio------ns,
             A chord diagramE MajorE            F#m11/C#    G#m7b13/D#  F#m11/C#
                Screaming in my      head,
             A chord diagramE MajorE           F#m11/C#        G#m7b13/D#  F#m11/C#
                Lies all mixed up with omission,
                   A chord diagramE MajorE             F#m11/C#    G#m7b13/D#  F#m11/C#
                Aw welcome home again.


[Bridge]                 Am/E                            Cmaj/G
                An' it's too late for apologies, they're falling at my feet.


[Chorus]     A chord diagramE MajorE                                            A chord diagramA augmentedA
                "This is just the way of the world", Joe said,
                               B(add11)/F#      A chord diagramE MajorE
                I had to put a bullet into his head,
                                           A chord diagramA augmentedA
                And then lit up a cigarette,
                           G#m7b13/D#           A chord diagramE MajorE
                Decided to call his fat friend Fred,
                                                     A chord diagramA augmentedA
                "What he said, Fred, a just killed a man,
                             B(add11)/F#         A chord diagramE MajorE
                I caught him laying with my girlfriend,
                                            A chord diagramA augmentedA                G#m7b13/D#         F#m11/C#
                And now they're both dead", people can be so cold when they're dead.


[Link]          | A chord diagramE MajorE  F#m11/C#  | G#m7b13/D#  F#m11/C#  |
                | A chord diagramE MajorE  F#m11/C#  | G#m7b13/D#  F#m11/C#  |


[Verse 3]    A chord diagramE MajorE          F#m11/C#    G#m7b13/D#  F#m11/C#
                Calling all the     neighbours,
             A chord diagramE MajorE          F#m11/C#    G#m7b13/D#  F#m11/C#
                Time to make     a-mends,
             A chord diagramE MajorE          F#m11/C#    G#m7b13/D#  F#m11/C#
                Whiskey floods a    table,
                   A chord diagramE MajorE                     F#m11/C#    G#m7b13/D#  F#m11/C#
                Aw good friends 'til the end.


[Bridge]                    Am/E                        Cmaj/G
                And they're making silly faces and it's tasting bitter sweet.


[Chorus]     A chord diagramE MajorE                                            A chord diagramA augmentedA
                "This is just the way of the world", Joe said,
                             B(add11)/F#      A chord diagramE MajorE
                had to put a bullet into his head,
                                           A chord diagramA augmentedA
                And then lit up a cigarette,
                           G#m7b13/D#           A chord diagramE MajorE
                Decided to call his fat friend Fred,
                                                     A chord diagramA augmentedA
                "What he said, Fred, a just killed a man,
                             B(add11)/F#         A chord diagramE MajorE
                I caught him laying with my girlfriend,
                                            A chord diagramA augmentedA             G#m7b13/D#         F#m11/C#
                And now they're both dead", you can be so cold when they're dead.


[Solo/Bridge]   | A chord diagramE MajorE  F#m11/C#  | G#m7b13/D#  F#m11/C#  |
                | A chord diagramE MajorE  F#m11/C#  | G#m7b13/D#  F#m11/C#  |

                     Am/E                            N.C.
                It's too late for apologies, they're falling at my feet.


[Link]          | A chord diagramE MajorE  F#m11/C#  | G#m7b13/D#  F#m11/C#  |
                | A chord diagramE MajorE  F#m11/C#  | G#m7b13/D#  F#m11/C#  |


[Outro]         A chord diagramE MajorE                                            A chord diagramA augmentedA
                "This is just the way of the world", Joe said,
                             B(add11)/F#      A chord diagramE MajorE
                had to put a bullet into his head,
                                           A chord diagramA augmentedA
                And then lit up a cigarette,
                           G#m7b13/D#           A chord diagramE MajorE
                Decided to call his fat friend Fred,
                                                     A chord diagramA augmentedA
                "What he said, Fred, a just killed a man,
                             B(add11)/F#         A chord diagramE MajorE
                I caught him laying with my girlfriend,
                                            A chord diagramA augmentedA                G#m7b13/D#         A chord diagramE MajorE
                And now they're both dead", people can be so cold when they're dead.
                                                            A chord diagramA augmentedA
                A chord diagramA augmentedA "This is just the way of the world", Joe said,
                               B(add11)/F#      A chord diagramE MajorE
                I had to put a bullet into his head,
                                           A chord diagramA augmentedA
                And then lit up a cigarette,
                           G#m7b13/D            A chord diagramE MajorE
                Decided to call his fat friend Fred,
                                                     A chord diagramA augmentedA
                "What he said Fred, I just killed a man,
                             B(add11)/F#         A chord diagramE MajorE
                I caught him laying with my girlfriend,
                                            A chord diagramA augmentedA             G#m7b13/D          F#m11/C#
                And now they're both dead", you can be so cold when they're dead. (.)



                ***************************************
                *KINGS OF LEON - JOE'S HEAD LEAD PARTS*
                ***************************************


b  -  Bend
() -  Bracketed numbers are the note you bend up to
h  -  Hammer On
p  -  Pull Off
r  -  Return
/  -  Slide Up
\  -  Slide Down
d  -  Strum Down
u  -  Strum Up
PM -  Palm Mute
NH -  Natural Harmonics
^  -  Vibrato


[INTRO] - [00:09]
e -5p4-4------5p4-4--5p4-7--5p4-4------5p4-4--5p4-7---------------------
A chord diagramBB ----5----------5------5------5----------5------5----------------------
A chord diagramG+G ----------------------------------------------------------------------
A chord diagramD MajorD ----------------------------------------------------------------------
A chord diagramA augmentedA ----------------------------------------------------------------------
A chord diagramE MajorE ----------------------------------------------------------------------


[LINK]
e -5p4-4------5p4-4--5p4-7--5p4-4------5p4-4--5p4-7---------------------
A chord diagramBB ----5----------5------5------5----------5------5----------------------
A chord diagramG+G ----------------------------------------------------------------------
A chord diagramD MajorD ----------------------------------------------------------------------
A chord diagramA augmentedA ----------------------------------------------------------------------
A chord diagramE MajorE ----------------------------------------------------------------------


                                                     [BRIDGE]

[VERSE 2]                                            A chord diagramA minorAm     A chord diagramC majorC
e ----------------------------------------------------------------------
A chord diagramBB ----------------------------------------------------------------------
A chord diagramG+G ---------------------------------------------------5------9-----------
A chord diagramD MajorD ---------------------------------------------------7-----10-----------
A chord diagramA augmentedA ----22--2/4-44-4/6-66-6\4-44--[TIMES 4 THEN PLAY]--7-----10-----------
A chord diagramE MajorE -0-[LET RING]--------------------------------------5------8-----------



[CHORUS]
e ----------------------------------------------------------------------
A chord diagramBB ------0-----0-0---------------------------------XX5-55-5-XX-----------
A chord diagramG+G ---0h1---0h1-----6-6--666-8-88------99------9-9-XX6-66-6-XX-4-44-444--
A chord diagramD MajorD -----------------7-7--777-9-99--4/9-99--4/9-9-9-XX7-77-7-XX-6-66-666--
A chord diagramA augmentedA -----------------7-7--777-9-99--2/7-77--2/7-7-7-XX7-77-7-XX-6-66-666--
A chord diagramE MajorE -0--------------------------------------------------------------------

  ----------------------------------------------------------------------0-
  ------0-----0-0------------------------------------5-55-5-XX----------0-
  ---0h1---0h1-----6-6--666-8-88------999------9-999-6-66-6-XX-4-44-444-2-
  -----------------7-7--777-9-99--4/9-999--4/9-9-999-7-77-7-XX-6-66-666-4-
  -----------------7-7--777-9-99--2/7-777--2/7-7-777-7-77-7-XX-6-66-666-4-
  -0----------------------------------------------------------------------


[LINK]
e -5p4-4------5p4-4--5p4-7--5p4-4------5p4-4--5p4-7---------------------
A chord diagramBB ----5----------5------5------5----------5------5----------------------
A chord diagramG+G ----------------------------------------------------------------------
A chord diagramD MajorD ----------------------------------------------------------------------
A chord diagramA augmentedA ----------------------------------------------------------------------
A chord diagramE MajorE ----------------------------------------------------------------------


                                                     [BRIDGE]

[VERSE 3]                                            A chord diagramA minorAm     A chord diagramC majorC
e ----------------------------------------------------------------------
A chord diagramBB ----------------------------------------------------------------------
A chord diagramG+G ---------------------------------------------------5------9-----------
A chord diagramD MajorD ---------------------------------------------------7-----10-----------
A chord diagramA augmentedA ----22--2/4-44-4/6-66-6\4-44--[TIMES 4 THEN PLAY]--7-----10-----------
A chord diagramE MajorE -0-[LET RING]--------------------------------------5------8-----------



[CHORUS]
e ----------------------------------------------------------------------
A chord diagramBB ------0-----0-0----------------------------------XX5-55-5-XX----------
A chord diagramG+G ---0h1---0h1-----6-6--666-8-88------999------9-9-XX6-66-6-XX-4-44-444-
A chord diagramD MajorD -----------------7-7--777-9-99--4/9-999--4/9-9-9-XX7-77-7-XX-6-66-666-
A chord diagramA augmentedA -----------------7-7--777-9-99--2/7-777--2/7-7-7-XX7-77-7-XX-6-66-666-
A chord diagramE MajorE -0--------------------------------------------------------------------

  ----------------------------------------------------------------------0-
  ------0-----0-0------------------------------------5-55-5-XX----------0-
  ---0h1---0h1-----6-6--666-8-88------999------9-999-6-66-6-XX-4-44-444-2-
  -----------------7-7--777-9-99--4/9-999--4/9-9-999-7-77-7-XX-6-66-666-4-
  -----------------7-7--777-9-99--2/7-777--2/7-7-777-7-77-7-XX-6-66-666-4-
  -0----------------------------------------------------------------------



[SOLO/BRIDGE]
e ----------------------------------------------------------------------
A chord diagramBB ----------------------------------------------------------------------
A chord diagramG+G -------4-6--4---------4-6/9--6p4---------4--6-4-6--9--8-9-11--9-11-12-
A chord diagramD MajorD -4--6---------6-4--6------------6--4--6-------------------------------
A chord diagramA augmentedA ----------------------------------------------------------------------
A chord diagramE MajorE ----------------------------------------------------------------------


[LINK]
e ----4-------5-------7-------5-------4-------5-------7-------5---------
A chord diagramBB -5----5--7----7--9----9--7----7--5----5--7----7--9----9--7----7-------
A chord diagramG+G ----------------------------------------------------------------------
A chord diagramD MajorD ----------------------------------------------------------------------
A chord diagramA augmentedA ----------------------------------------------------------------------
A chord diagramE MajorE ----------------------------------------------------------------------



[CHORUS]
e ----------------------------------------------------------------------
A chord diagramBB ------0-----0-0----------------------------------XX5-55-5-XX----------
A chord diagramG+G ---0h1---0h1-----6-6--666-8-88------999------9-9-XX6-66-6-XX-4-44-444-
A chord diagramD MajorD -----------------7-7--777-9-99--4/9-999--4/9-9-9-XX7-77-7-XX-6-66-666-
A chord diagramA augmentedA -----------------7-7--777-9-99--2/7-777--2/7-7-7-XX7-77-7-XX-6-66-666-
A chord diagramE MajorE -0--------------------------------------------------------------------

  ----------------------------------------------------------------------
  ------0-----0-0------------------------------------5-55-5-XX----------
  ---0h1---0h1-----6-6--666-8-88------999------9-999-6-66-6-XX-4-44-444-
  -----------------7-7--777-9-99--4/9-999--4/9-9-999-7-77-7-XX-6-66-666-
  -----------------7-7--777-9-99--2/7-777--2/7-7-777-7-77-7-XX-6-66-666-
  -0--------------------------------------------------------------------

  ----------------------------------------------------------------------
  ------0-----0-0----------------------------------XX5-55-5-XX----------
  ---0h1---0h1-----6-6--666-8-88------999------9-9-XX6-66-6-XX-4-44-444-
  -----------------7-7--777-9-99--4/9-999--4/9-9-9-XX7-77-7-XX-6-66-666-
  -----------------7-7--777-9-99--2/7-777--2/7-7-7-XX7-77-7-XX-6-66-666-
  -0--------------------------------------------------------------------

  ----------------------------------------------------------------------0-
  ------0-----0-0------------------------------------5-55-5-XX----------0-
  ---0h1---0h1-----6-6--666-8-88------999------9-999-6-66-6-XX-4-44-444-2-
  -----------------7-7--777-9-99--4/9-999--4/9-9-999-7-77-7-XX-6-66-666-4-
  -----------------7-7--777-9-99--2/7-777--2/7-7-777-7-77-7-XX-6-66-666-4-
  -0----------------------------------------------------------------------



****************************************************************************************
****************************************************************************************


Group/Singer Name:      Kings Of Leon
Additional Info:        Youth & Young Manhood - Track 05
Tabbed By:              Dean Hill - Comments, Suggestions? the.scotsman@blueyonder.co.uk


[Chords Used]   A(577655); E(022100); B(799877); C#m(9[11][11]999); G#(466544)


[Intro]         | 1 & 2 & |  | 1 & 2 & 3 & 4 & | 1 & 2 & 3 & 4 & |
                |---------|  |-----------------|-----------------|
                |       A chord diagramA augmentedA |  | A chord diagramE MajorE             A chord diagramBB | A chord diagramA augmentedA       A chord diagramC# minorC#m A chord diagramBB A chord diagramA augmentedA |

                             | 1 & 2 & 3 & 4 & | 1 & 2 & 3 & 4 & |
                             |-----------------|-----------------|
                             | A chord diagramE MajorE             A chord diagramBB | A chord diagramA augmentedA       A chord diagramC# minorC#m A chord diagramBB A chord diagramA augmentedA |


[Verse 1] A chord diagramE MajorE                               A chord diagramBB  A chord diagramA augmentedA
            Dirty belly of a secret town,
                                    A chord diagramC# minorC#m                 A chord diagramBB    yA                A chord diagramE MajorE
            Cheap trick hookers are hangin' out at "The Barn" at the greyhound station,
                                             A chord diagramBB   A chord diagramA augmentedA
            And the bare-chested boys are goin' down,
                    A chord diagramC# minorC#m                      A chord diagramBB    A chord diagramA augmentedA   A chord diagramE MajorE
            On everything that their momma believed.
                                                  A chord diagramBB  A chord diagramA augmentedA
            Pack of smokes and little bump of cocai-i-ne,
                              A chord diagramC# minorC#m     A chord diagramBB
            Help you feel not so strange.


[Bridge]    A chord diagramA augmentedA       A chord diagramE MajorE                  A chord diagramA augmentedA
            Said oh Paw, she don't get off,
                   A chord diagramC# minorC#m
            Unless somebody's standing near her,
            A chord diagramA augmentedA          A chord diagramE MajorE                                A chord diagramA augmentedA
            And she'll shine, once a, she's crossed the line,
                      A chord diagramC# minorC#m
            Hands all tied to a chair.


[Chorus]               A chord diagramA augmentedA        A chord diagramE MajorE                         A chord diagramA augmentedA
            Oscillating on the ground, blowin' white noise sound,
                   A chord diagramC# minorC#m               A chord diagramBB    A chord diagramA augmentedA
            Like a Trani on ten!


[Link]      | A chord diagramE MajorE             A chord diagramBB | A chord diagramA augmentedA       A chord diagramC# minorC#m A chord diagramBB  A chord diagramA augmentedA |


[Verse 2] A chord diagramE MajorE                                           A chord diagramBB  A chord diagramA augmentedA
            All the bubba's got their, heads in a knot,
                                      A chord diagramC# minorC#m        A chord diagramBB     A chord diagramA augmentedA   A chord diagramE MajorE
            They don't know what they love, or deserve to give,
                                                     A chord diagramBB   A chord diagramA augmentedA
            Chances are each have one a minuites left,
                            A chord diagramC# minorC#m                A chord diagramBB     A chord diagramA augmentedA         A chord diagramE MajorE
            He doesn't even know which fist that, he'd like to bite tonight,
                                       A chord diagramBB  A chord diagramA augmentedA                    A chord diagramC# minorC#m       A chord diagramBB
            Oh tonight, toni-i-ght, tonight.        Well maybe tonight...


[Bridge]              A chord diagramE MajorE                  A chord diagramA augmentedA
            'Cause oh Paw, she don't get off,
                   A chord diagramC# minorC#m
            Unless    somebody's standing near her,
                       A chord diagramE MajorE                                A chord diagramA augmentedA
            And she'll shine, once a, she's crossed the line,
                      A chord diagramC# minorC#m
            Hands all tied to a chair.


[Chorus]               A chord diagramA augmentedA       A chord diagramE MajorE                           A chord diagramA augmentedA
            Oscillating on the ground, blowin' white noise sound,
                   A chord diagramC# minorC#m
            Like a Trani on ten!


[Middle 8]  A chord diagramG#G#
            God's the only call,
          A chord diagramA augmentedA
            And now the priest's,
          A chord diagramG#G#
            Finger's in the dirt,
          A chord diagramBB
            Spittin' out his teeth, Spittin' out his teeth.


[Solo]      | A chord diagramE MajorE       A chord diagramA augmentedA       | A chord diagramC# minorC#m             |
            | A chord diagramE MajorE       A chord diagramA augmentedA       | A chord diagramC# minorC#m             |
            | A chord diagramE MajorE       A chord diagramA augmentedA       | A chord diagramC# minorC#m             |


[Middle 8]  A chord diagramG#G#
            God's the only call,
          A chord diagramA augmentedA
            And now the priest's,
          A chord diagramG#G#
            Finger's in the dirt,
                        A chord diagramBB
            And he's a,   Spittin' out his teeth, Spittin' out!.


[Bridge]         A chord diagramE MajorE                  A chord diagramA augmentedA
            Said Paw, she don't get off,
                   A chord diagramC# minorC#m
            Unless somebody is standing near her,
                       A chord diagramE MajorE                          A chord diagramA augmentedA
            And she'll shine, once she' cross the line,
                      A chord diagramC# minorC#m
            Hands all tied to a chair.


[Outro]                        A chord diagramE MajorE                          A chord diagramA augmentedA
            Oscillating on the ground, blowin' white noise sound,
                   A chord diagramC# minorC#m
            Like a Trani on ten!
                       A chord diagramA augmentedA       A chord diagramE MajorE                          A chord diagramA augmentedA
            Oscillating on the ground, blowin' white noise sound,
                   A chord diagramC# minorC#m
            Like a Trani on, ten!
                       A chord diagramA augmentedA       A chord diagramE MajorE                         A chord diagramA augmentedA
            Oscillating on the ground, a blowin' white noise sound,
                   A chord diagramC# minorC#m
            Like a Trani on ten!
                       A chord diagramA augmentedA       A chord diagramE MajorE                          A chord diagramA augmentedA
            Oscillating on the ground, blowin' white noise sound,
                   A chord diagramC# minorC#m
            Like a Trani on, ten!
                               A chord diagramE MajorE                           A chord diagramA augmentedA
            Oscillating on the ground, blowin' white noise sound,
                   A chord diagramC# minorC#m
            Like a Trani on, ten!
                             | A chord diagramE MajorE       A chord diagramA augmentedA              | A chord diagramC# minorC#m             |
            Oscillating on the...

            | A chord diagramE MajorE       A chord diagramA augmentedA       | A chord diagramC# minorC#m             |
(Screamed)------------------------------> Oscillating!

            | A chord diagramE MajorE       A chord diagramA augmentedA       | A chord diagramC# minorC#m             |
(Screamed)------------> Trani! -------> Oscillating!

            | E(.)




                  **********************************
                  *KINGS OF LEON - TRANI LEAD PARTS*
                  **********************************


b  -  Bend
() -  Bracketed numbers are the note you bend up to
h  -  Hammer On
p  -  Pull Off
r  -  Return
/  -  Slide Up
\  -  Slide Down
d  -  Strum Down
u  -  Strum Up
PM -  Palm Mute
NH -  Natural Harmonics
^  -  Vibrato



[INTRO] x8
e -------0-------
A chord diagramBB -9b(10)-(10)r9-
A chord diagramG+G ---------------
A chord diagramD MajorD ---------------
A chord diagramA augmentedA ---------------
A chord diagramE MajorE ---------------



[VERSE 1] - NOTHING PLAYED



[BRIDGE] X2
PM----------------------|
e ------------------------0-0-----0--------0----------------------------
A chord diagramBB ---------------7---7--------------------------9b(10)---9--------------
A chord diagramG+G -6-9-6-6/9-9-9---9---9------6h9---9--6/9---9--------------------------
A chord diagramD MajorD ----------------------------------------------------------------------
A chord diagramA augmentedA ----------------------------------------------------------------------
A chord diagramE MajorE ----------------------------------------------------------------------



[CHORUS]
PM----------------------|
e ------------------------0-0-----0--------0----------------------------
A chord diagramBB ---------------7---7--------------------------9b(10)---9--------------
A chord diagramG+G -6-9-6-6/9-9-9---9---9------6h9---9--6/9---9--------------------------
A chord diagramD MajorD ----------------------------------------------------------------------
A chord diagramA augmentedA ----------------------------------------------------------------------
A chord diagramE MajorE ----------------------------------------------------------------------


[LINK] - ACOUSTIC PLAYS SAME AS RHYTHM



[VERSE 2] - NOTHING PLAYED



[BRIDGE] X2
PM----------------------|
e ------------------------0-0-----0--------0----------------------------
A chord diagramBB ---------------7---7--------------------------9b(10)---9--------------
A chord diagramG+G -6-9-6-6/9-9-9---9---9------6h9---9--6/9---9--------------------------
A chord diagramD MajorD ----------------------------------------------------------------------
A chord diagramA augmentedA ----------------------------------------------------------------------
A chord diagramE MajorE ----------------------------------------------------------------------



[CHORUS]
PM----------------------|
e ------------------------0-0-----0--------0----------------------------
A chord diagramBB ---------------7---7--------------------------9b(10)---9--------------
A chord diagramG+G -6-9-6-6/9-9-9---9---9------6h9---9--6/9---9--------------------------
A chord diagramD MajorD ----------------------------------------------------------------------
A chord diagramA augmentedA ----------------------------------------------------------------------
A chord diagramE MajorE ----------------------------------------------------------------------


[MIDDLE 8] - NOTHING PLAYED



[SOLO]
e ----------------------------------------------------------------------
A chord diagramBB ---------8------------------------------------------------------------
A chord diagramG+G -6/9-9-9---9-9p7-------8b(9)-9-8b(9)--9-------------------------------
A chord diagramD MajorD ----------------9-7b(8)----------------------6-9----------------------
A chord diagramA augmentedA -------------------------------------------7-----97-------7-----------
A chord diagramE MajorE ----------------------------------------/9---------9--7-9---9---------

  ----------------------------------------------------------------------
  ----------------------------------------------------------------------
  ----------------------------------------------------------------------
  -8b(9)(9)(9)(9)(9)(9)(9)(9)(9)(9)pr7----------------------------------
  ------------------------------------10-7-10---------------------------
  ----------------------------------------------------------------------

  ----------------------------------------------------------------------
  ----------------------------------------------------------------------
  ----------------------------------------------------------------------
  -8b(9)(9)(9)(9)(9)(9)(9)(9)(9)(9)pr7----------------------------------
  ------------------------------------10-7-10---------------------------
  ----------------------------------------------------------------------

  -------9-------9-8b(9)-9-12b(14)(14)r12-9---9---9/12-12-12----154b(17)-
  -7b(9)---7b(9)---------------------------12--12------------15---------
  ----------------------------------------------------------------------
  ----------------------------------------------------------------------
  ----------------------------------------------------------------------
  ----------------------------------------------------------------------

  -15b(17)-15b(17)-15b(17)r15-12--------12------------------------------
  -------------------------------15b(17)---15-12----12------------------
  -----------------------------------------------14----14-12------------
  ----------------------------------------------------------------------
  ----------------------------------------------------------------------
  ----------------------------------------------------------------------
                                [16 TIMES----------------------]
  ----------------------------------------------------------------------
  -12/14-141414141414/12--12-12-15151515151515151515151515151515--------
  ----------------------------------------------------------------------
  ----------------------------------------------------------------------
  ----------------------------------------------------------------------
  ----------------------------------------------------------------------


[MIDDLE 8] - NOTHING PLAYED


[BRIDGE] - ACOUSTIC PLAYS STATED CHORDS


[OUTRO] @ [04:12] - [REPEAT TO END OF SONG AND FINISH ON 1 STRUM OF]--¬
  ---------------------------                                    ----------
  -101010101010101010-9--9-9-                                    -----9----
  --9-9-9-9-9-9-9-9-9-9--9-9-                                    -----9----
  --9-9-9-9-9-9-9-9-9-9--9-9-                                    -----9----
  ---------------------------                                    ----------
  ---------------------------                                    ----------



****************************************************************************************
****************************************************************************************
****************************************************************************************


Group/Singer Name:      Kings Of Leon
Additional Info:        Youth & Young Manhood - Trac

Almost there ...

Sign in to get your own page with links to favourite songs and more. You are just one click away...

Login with Facebook Login with Google