Log in

One click and you are in

Login with Facebook Login with Google

Why sign up and log in

Guitar Tabs Explorer
Kings Of Leon bass tabs for Time in disguise

Bass tabs

Intro: - Rest until 0:50
G|---------------------------------|---------------------------------|
D|--------6---------6------4-------|--------6---------6--------------|
A|/7--------4----------------------|7---------4------------6---------|
E|-------7---------7---4------4-7--|-------7---------7----------4-7--|

Verse 1: - 1:08
G|---------------------------------|
D|--------6---------6--------------| x2
A|7-7--------4-4-------6-----------|
E|-------7---------7-------4--4-7--|



Pre-Chorus: - 1:24
G|----------------|---------------|----------------|---------------|
D|--------6-6-9-9-|---------------|--------6-6-9-9-|---------------|
A|7-7-9-9---------|4-4-/6---------|7-7-9-9---------|4---/6--6------|
E|----------------|----------4---7|----------------|------------4-7|



Chorus: - 1:39
G|---------------|----------------|----------------|----------------|
D|---------------|----------------|----------------|4-4-4-4-4-6-6-6-|
A|---------------|4-4-4-4-4-4-4-4-|----------------|----------------|
E|0-0-0-0-0-0-0-0|----------------|4-4-4-4-4-4-4-4-|----------------|

G|---------------|----------------|----------------|----------------|
D|---------------|----------------|----------------|----------------|
A|---------------|4-4-4-4-4-4-4-4-|----------------|----------------|
E|0-0-0-0-0-0-0-0|----------------|6-6-6-6-6-6-6-6-|4-4-4-4-4-4-4-7-|

G|-----6---------|-----------|----------|-------------|
D|---9-----9-6---|--------6--|----------|-------------| x2
A|7--------------|4-----4----|6---------|-------------|
E|---------------|-----------|----------|4--------4--7|


Pre-Verse 2: - 2:11
G|----------------|----------------|----------------|----------------|
D|----------------|----------------|----------------|----------------|
A|7-7-7-7-7-9-7-2-|4-4-4-4-4-4-2-2-|6-6-6-6-6-6-6-6-|----------------|
E|----------------|----------------|----------------|4-4-4-4-4-4-4-4/|

G|----------------|----------------|----------------|----------------|
D|----------------|----------------|----------------|6-6-6-6-6-6-----|
A|7-7-7-7-7-9-7-2-|4-4-4-4-4-4-2-2-|6-6-6-6-6-6-6-6-|----------------|
E|----------------|----------------|----------------|------------4-7-|


Verse 2: - 2:24 - Same as Verse 1
G|---------------------------------|
D|--------6---------6--------------| x2
A|7-7--------4-4-------6-----------|
E|-------7---------7-------4--4-7--|


Pre-Chorus 2: - 2:20 - Same as Pre-Chorus
G|----------------|---------------|----------------|---------------|
D|--------6-6-9-9-|---------------|--------6-6-9-9-|---------------|
A|7-7-9-9---------|4-4-/6---------|7-7-9-9---------|4---/6--6------|
E|----------------|----------4---7|----------------|------------4-7|


Chorus 2: - 2:57
G|---------------|----------------|----------------|----------------|
D|---------------|--------------6-|----------------|4-4-4-4-4-4-----|
A|---------------|4-4-4-4-4-4-----|----------------|----------------|
E|0-0-0-0-0-0-0-0|------------7---|4-4-4-4-4-4-4-4-|------------4-7-|

G|---------------|----------------|----------------|----------------|
D|---------------|----------------|----------------|----------------|
A|7-7-7-7-7-7-7-7|4-4-4-4-4-4-4-4-|6-6-6-6-6-6-6-6-|----------------|
E|---------------|----------------|----------------|4-4-4-4-2-2-2-2-|


Bridge: - 3:12
G|----------------|----------------|----------------|----------------|
D|----------------|----------------|----------------|----------------| x2
A|----------------|------------2-2-|4-4-4-4-4-4-4-4-|----------------|
E|0-0-0-0-0-0-0-0-|0-0-0-0-0-0-----|----------------|4-4-4-4-4-4-2-2-|

G|---------------------------------|----------------|----------------|
D|2-2-2-2-2-2-2-2-|2-2-2-2-2-2-----|----------------|----------------|
A|-----------------------------2-2-|4-4-4-4-4-4-4-4-|----------------|
E|---------------------------------|----------------|4-4-4-4-4-4-2-2-|

G|----------------|----------------|----------------|----------------|
D|----------------|----------------|----------------|----------------|
A|----------------|------------2-2-|4-4-4-4-4-4-4-4-|----------------|
E|0-0-0-0-0-0-0-0-|0-0-0-0-0-0-----|----------------|4-4-4-4-4-4-4-/7|


Pre-Chorus 3: - 3:42 - Same as Pre-Chorus 1
G|----------------|---------------|----------------|---------------|
D|--------6-6-9-9-|---------------|--------6-6-9-9-|---------------|
A|7-7-9-9---------|4-4-/6---------|7-7-9-9---------|4---/6--6------|
E|----------------|----------4---7|----------------|------------4-7|


Chorus 3: - 3:59 - Same as Chorus
G|---------------|----------------|----------------|----------------|
D|---------------|----------------|----------------|4-4-4-4-4-6-6-6-|
A|---------------|4-4-4-4-4-4-4-4-|----------------|----------------|
E|0-0-0-0-0-0-0-0|----------------|4-4-4-4-4-4-4-4-|----------------|

G|---------------|----------------|----------------|----------------|
D|---------------|----------------|----------------|----------------|
A|---------------|4-4-4-4-4-4-4-4-|----------------|----------------|
E|0-0-0-0-0-0-0-0|----------------|6-6-6-6-6-6-6-6-|4-4-4-4-4-4-4-7-|

G|-----6---------|-----------|----------|-------------|
D|---9-----9-6---|--------6--|----------|-------------| x2
A|7--------------|4-----4----|6---------|-------------|
E|---------------|-----------|----------|4--------4--7|


Ending:
G|-----6---------|-----------|----------|-------------|
D|---9-----9-6---|-----------|----------|-------------|
A|7--------------|4-4----4-5-|6---------|-------------|
E|---------------|-----------|----------|-------------|


☠☠☠☠☠☠☠☠☠☠☠☠☠☠☠☠☠☠☠☠☠☠☠☠☠☠☠☠☠☠☠☠☠☠☠☠

| / Slide up

☠☠☠☠☠☠☠☠☠☠☠☠☠☠☠☠☠☠☠☠☠☠☠☠☠☠☠☠☠☠☠☠☠☠☠☠

Almost there ...

Sign in to get your own page with links to favourite songs and more. You are just one click away...

Login with Facebook Login with Google