Log in

One click and you are in

Login with Facebook Login with Google

Why sign up and log in

Guitar Tabs Explorer
Kings Of Leon bass tabs for Rock city (Ver. 2)

Bass tabs

  • Tuning: Standard tuning
  • Difficulty: Beginner
-------------------------------------------------------------------
           Artist - Kings Of Leon
          ************************
            Song - Rock City
            ******************
         Album - Mechanical Bull (2013)
        ********************************
           Tabbed By - Ayreon77
           **********************
-------------------------------------------------------------------

Tuning = Standard


INTRO
******
G|---------------------------------------|
D|---------------------------------------|
A|-------------------------------------s-|
E|-10~~~~~~~-7~~~~~~~-5~~~~~~~-3~~~~~~-\-|X2


----------------------------
00:25

VERSE 1
********
G|---------------------------------------|
D|---------------------------------------|
A|-------------------------------------s-|
E|-10~~~~~~~-7~~~~~~~-5~~~~~~~-3~~~~~~-\-|X2

00:48
G|--------------------------|-------------------|
D|--------------------------|-------------------|
A|------------------------s-|-----------------s-|
E|-10-10-10-0-10-10-10--10\-|-7-7-7-0-7-7-7--7\-|

G|--------------------|-------------------------------------|
D|--------------------|-------------------------------------|
A|------------------s-|----------------s--5-7~~-------------|
E|-5-5-5-0-5-5-5-5-5\-|-3-3-3-0-3-3-3-5\7-------0~~~~~~~~~~-|


----------------------------
01:06

BREAK
******
G|----------------------------|--------------------|
D|----------------------------|--------------------|
A|--------------------------s-|------------------s-|
E|-10-10-10-0-10-10-10-10-10\-|-7-7-7-0-7-7-7-7-7\-|


G|--------------------|--------------------|
D|--------------------|--------------------|
A|------------------s-|------------------s-|
E|-5-5-5-0-5-5-5-5-5\-|-3-3-3-0-3-3-3-3-3\-|


----------------------------
01:17

VERSE 2
********
G|---------------------------------------|
D|---------------------------------------|
A|-------------------------------------s-|
E|-10~~~~~~~-7~~~~~~~-5~~~~~~~-3~~~~~~-\-|

01:29
G|--------------------------|-------------------|
D|--------------------------|-------------------|
A|------------------------s-|-----------------s-|
E|-10-10-10-0-10-10-10--10\-|-7-7-7-0-7-7-7--7\-|


G|--------------------|-------------------------------------|
D|--------------------|-------------------------------------|
A|------------------s-|----------------s--5-7~~-------------|
E|-5-5-5-0-5-5-5-5-5\-|-3-3-3-0-3-3-3-5\7-------0~~~~~~~~~~-|


----------------------------
01:46

SOLO 1
*******
G|----------------------------|--------------------|
D|----------------------------|--------------------|
A|--------------------------s-|------------------s-|
E|-10-10-10-0-10-10-10-10-10\-|-7-7-7-0-7-7-7-7-7\-|


G|--------------------|--------------------|
D|--------------------|--------------------|
A|------------------s-|------------------s-|
E|-5-5-5-0-5-5-5-5-5\-|-3-3-3-0-3-3-3-3-3\-|


----------------------------
01:58

BRIDGE
*******            02:08
G|---------------------------------------------------|
D|---------------------------------------------------|
A|------------------------------s--5-5-7-------------|
E|-10~~~~~~~-7~~~~~~~----------3\7-------0~~~~~~~~~~-|


----------------------------
02:15

BREAK
******
G|-------------------------------|---------------------------------------|
D|-------------------------------|---------------------------------------|
A|------------------------9-10-9-|------------------------9-10-9-7~~~~~~-|
E|-10-10-10-0-10-10-10-10--------|-10-10-10-0-10-10-10-10----------------|


----------------------------
02:27

SOLO 2
*******
G|----------------------------|--------------------|
D|----------------------------|--------------------|
A|--------------------------s-|------------------s-|
E|-10-10-10-0-10-10-10-10-10\-|-7-7-7-0-7-7-7-7-7\-|


G|--------------------|--------------------|
D|--------------------|--------------------|
A|------------------s-|------------------s-|
E|-5-5-5-0-5-5-5-5-5\-|-3-3-3-0-3-3-3-3-3\-|


G|----------------------------|--------------------|
D|----------------------------|--------------------|
A|--------------------------s-|------------------s-|
E|-10-10-10-0-10-10-10-10-10\-|-7-7-7-0-7-7-7-7-7\-|


G|--------------------|--------------|
D|--------------------|--------------|
A|------------------s-|--------------|
E|-5-5-5-0-5-5-5-5-5\-|-3~~~~~~~~~~--|


ENJOY.............

Rock City bass tab

Kings Of Leon bass tabs for Rock city (Ver. 2) From There Album, Mechanical Bull (2013)

Other versions of Rock City

Rock cityBass tabs

Almost there ...

Sign in to get your own page with links to favourite songs and more. You are just one click away...

Login with Facebook Login with Google