Log in

One click and you are in

Login with Facebook Login with Google

Why sign up and log in

Guitar Tabs Explorer
Kings Of Leon bass tabs for Rememo

Bass tabs

Tabbed By : jrbfear
e-mail:


Tuning: standard

i really like this song
and this is pretty much my first tab
thought i'd try and figure it out
it sounds right to me
:)
please rate
no bass until 0.17
  0.17-0.38
G|----------------------|
D|----------------------|
A|-----12---/---7-------|
E|----------------------|

  0.38-0.43
G|----------------------|
D|----------------------|
A|---12--14--16--17-----|
E|----------------------|

  0.44-1.04
G|----------------------|
D|----------------------|
A|-----12---/---7-------|
E|----------------------|

  1.04-1.09
G|----------------------|
D|----------------------|
A|---12--14--16--17-----|
E|----------------------|

  1.09-1.14
G|----------------------|
D|----------------------|
A|-----12---/---7-------|
E|----------------------|

  1.14-1.19
G|----------------------|
D|----------------------|
A|---7--9--7--11--------|
E|----------------------|

  1.19-1.40
G|----------------------|
D|----------------------|
A|-----12---/---7-------|
E|----------------------|

  1.41-1.46
G|----------------------|
D|----------------------|
A|---7--9--7--11--------|
E|----------------------|

  1.46-1.56
G|----------------------|
D|----------------------|
A|-----12---/---7-------|
E|----------------------|

  1.57-2.01
G|----------------------|
D|----------------------|
A|-----12~--------------|
E|----------------------|

  2.01-2.07
G|----------------------|
D|----------------------|
A|-----12~--------------|
E|----------------------|

  2.07-2.12
G|----------------------|
D|----------------------|
A|---12--14--16--17-----|
E|----------------------|

  2.12-2.17
G|----------------------|
D|----------------------|
A|-----12---/---7-------|
E|----------------------|

  2.17-2.22
G|----------------------|
D|----------------------|
A|---7--9--7--11--------|
E|----------------------|

  2.22-end
G|----------------------|
D|----------------------|
A|-----12---/---7-------|
E|----------------------|

Almost there ...

Sign in to get your own page with links to favourite songs and more. You are just one click away...

Login with Facebook Login with Google