Log in

One click and you are in

Login with Facebook Login with Google

Why sign up and log in

Guitar Tabs Explorer
Kings Of Leon bass tabs for Ragoo

Bass tabs

Intro

G|--------11----------------|
D|------12--12-------7------|
A|------------12---9--------|
E|-14/10---------7-----9-7-9|

G|-----11-11/12/11-----------|
D|---12----------------7-----|
A|-------------------9-------|
E|-10--------------7----9-7-9|
Verse

G|-----------------------|
D|-----------------------|
A|-----------------------|
E|-10-10---10---7-7---7--| x4


Chorus

G|-----------------------|
D|-----------------------|
A|----5-5--------5----7--|
E|-7---7-7-5-7-3--3-5--5-| x3


Intro


Verse


Chorus

Almost there ...

Sign in to get your own page with links to favourite songs and more. You are just one click away...

Login with Facebook Login with Google