Log in

One click and you are in

Login with Facebook Login with Google

Why sign up and log in

Guitar Tabs Explorer
Kings Of Leon bass tabs for My third house

Bass tabs

Verse

G|------------------------|
D|------------------------|
A|-----------------------2|
E|-4-4-4-4-2-3-4-4-4-4-2--| x4
Chorus - Hey, I'm sober from a bar...(fast)

G|-----------------------|
D|--9---9----9---9-------|
A|-7---7-7--7---7-7------|
E|-----------------------| x2


Verse x4


Chorus (fast) x2


Verse x2


Chorus - Hey I'm sober from a bar...(slow)

G|----------------------------|
D|---------------------------1|
A|-2---1---------------2---4--|
E|---------2---222-2-4---4----|

G|--------------------------------|
D|----1--------4-22-222-211-111-1-|
A|-2---1--------------------------|
E|---------2----------------------|


Verse x4


Chorus (fast) x2


Verse x2


Chorus (slow)

G|-----------------------|        }
D|-------1-----------1---|        }
A|-----2---2-------2-----|        }
E|-4-2-------0-4-2--2----| x2      }
                     }
G|---------------------------------|   }
D|---------------------------------|   }
A|---------------------------------|   } repeat - fade out
E|-2-2--0-2-0-2------0-2-2--0-2-0-2|   }
                     }
G|-----------------------|        }
D|-----------1-----------|        }
A|-----2---4-------------|        }

Almost there ...

Sign in to get your own page with links to favourite songs and more. You are just one click away...

Login with Facebook Login with Google