Log in

One click and you are in

Login with Facebook Login with Google

Why sign up and log in

Guitar Tabs Explorer
Kings Of Leon bass tabs for King of the rodeo

Bass tabs

Band: Kings of Leon

Tuning: Standard
email: mattdogg006@hotmail.com

I was looking for this tab but couldn't find it so i tabbed it myself -
should be 100% correct. Just listen and you'll pick up the rythem of the
song quickly.
Intro
G-------------------------------------------------------------------|
D----12(slide)------11--------11-------11------11-------------------|
A--------------99--------99-------9999-----99-----999---00000000000-|
E-------------------------------------------------------------------| (x2)


Verse 1
G------------------------------------------------------------------|
D----11--------11---------11------11-------------------------------|
A-99--------99-------9999-----99-----999---00000000000-------------|
E------------------------------------------------------------------| (x4)


Chorus
G------------------------------------------------------------------|
D------------------------------------------------------------------|
A----44444444------55555555----------------------------------------|
E------------------------------555555555555555---------------------| (x2)


Break / Verse
G------------------------------------------------------------------|
D--------11--------11-------11------11-----------------------------|
A---99--------99-------9999-----99-----999---00000000000-----------|
E------------------------------------------------------------------| (x4)


Chorus
G------------------------------------------------------------------|
D------------------------------------------------------------------|
A----44444444------55555555----------------------------------------|
E------------------------------555555555555555---------------------| (x2)


Solo
G------------------------------------------------------------------|
D--------11--------11-------11------11-----------------------------|
A---99--------99-------9999-----99-----999---00000000000-----------|
E------------------------------------------------------------------| (x2)


Chorus
G------------------------------------------------------------------|
D------------------------------------------------------------------|
A----44444444------55555555------------------------(12's to end)---|
E------------------------------555555555555555---------------------| (x4)

Almost there ...

Sign in to get your own page with links to favourite songs and more. You are just one click away...

Login with Facebook Login with Google