Log in

One click and you are in

Login with Facebook Login with Google

Why sign up and log in

Guitar Tabs Explorer
Kings Of Leon bass tabs for I want you

Bass tabs

Main riff:

G |---------------------------------------|
D |---------------------------------------|
A |---------2-2-2-2-2--3-3-3--------------|
E |-3-3-3-----------------------2-2-2-2-2-|

Then (2nd verse on) throw in this every other:

G |---------------------------------------|
D |---------------------------------------|
A |---------2-2-2-2-2--3-3-3-3/5-5/7-7----|
E |-3-3-3---------------------------------|

Almost there ...

Sign in to get your own page with links to favourite songs and more. You are just one click away...

Login with Facebook Login with Google