Log in

One click and you are in

Login with Facebook Login with Google

Why sign up and log in

Guitar Tabs Explorer
Kings Of Leon tabs for Head to toe

Guitar tabs with lyrics

Group/Singer Name:      Kings Of Leon
Additional Info:        Track 02 on the "Four Kicks" Single. (1st word of Verse 1 not known.
                        It's typed as I think it sounds!)
Tabbed By:              Dean Hill - Comments, Suggestions? the.scotsman@blueyonder.co.uk
[Chords Used]   E(022100); C#m(9[11][11]999); B(799877); Bb(688766);
                E*([12][14][14][13][12][12]); G(355433); Em([12][14][14][12][12][12])


[Intro]         Oh he's such a sucker from her head to her toes,
                Oh he's such a sucker from her head to her toe.

                |A chord diagramE MajorE             |A chord diagramE MajorE              |A chord diagramE MajorE              |A chord diagramE MajorE              |


[Verse 1]       A chord diagramE MajorE
                [Pro-o-o-o-zay-sha], Mississippi relator,
                A chord diagramE MajorE
                He's searchin' for the softball diamond,
                A chord diagramE MajorE
                Prancin' like a bad-ass and never seen a church house,
                A chord diagramE MajorE
                Another jolly face in the choir.


[Bridge]             A chord diagramC# minorC#m                        A chord diagramBB
                He's speakin' and a kissin' her mouth.


[Chorus 1]      A chord diagramE MajorE
                Oh he's such a sucker from her head to her toes,
                A chord diagramE MajorE
                Oh he's such a sucker from her head to her toe.

                |A chord diagramE MajorE             |A chord diagramE MajorE              |


[Verse 2]       A chord diagramE MajorE
                Screamin' at the cousin, like he never gets no lovin',
                A chord diagramE MajorE
                The hairy monkey's covered tonight,
                A chord diagramE MajorE
                Fallin' over tables and black-eyed with no way home,
                A chord diagramE MajorE
                A chord diagramA augmentedA poutin' underneath the street lights.


[Bridge]             A chord diagramC# minorC#m                        A chord diagramBB
                He's speakin' and a kissin' her mouth.


[Chorus 2]      A chord diagramE MajorE
                Oh he's such a sucker from her head to her toes,
                A chord diagramE MajorE
                Oh he's such a sucker from her head to her toe.
                    A chord diagramC# minorC#m                         A chord diagramBB
                And no-one seems to like it out loud.
                A chord diagramE MajorE
                Oh he's such a sucker from her head to her toe,
                A chord diagramE MajorE
                Oh he's such a sucker from her head to her toe.


[Middle 8/Solo] | 1 & 2 & 3 & 4 & | 1 & 2 & 3 & 4 & | 1 & 2 & 3 & 4 & | 1 & 2 & 3 & 4 & |
                |-----------------|-----------------|-----------------|-----------------|
                | A chord diagramBb majorBb              | A chord diagramBb majorBb      E*      | E*      A chord diagramBb majorBb      | A chord diagramBb majorBb              |
                | A chord diagramBB  A chord diagramG+G    A chord diagramE MajorE       | A chord diagramE MajorE               | A chord diagramE MajorE       |


[Chorus 3]     (A chord diagramE MajorE)
                Oh he's such a sucker from her head to her toes,
               (A chord diagramE MajorE)
                Oh he's such a sucker from her head to her toes,
               (A chord diagramE MajorE)
                Oh he's such a sucker from her head to her toe,
               (A chord diagramE MajorE)
                Oh he's such a sucker from her head to her toe.


[Outro]         A chord diagramE minorEm
                Oh he's such a sucker from her head to her toes,
                A chord diagramE minorEm
                Oh he's such a sucker from her head to her toe.

                |A chord diagramE minorEm            |A chord diagramE minorEm             |A chord diagramE minorEm              |





            *******************************************
            *    KINGS OF LEON - HEAD TO TOE - TAB    *
            *******************************************


b  -  Bend
sb -  Slow Bend
() -  Bracketed numbers are the note you bend up to
h  -  Hammer On
p  -  Pull Off
r  -  Return
/  -  Slide Up
\  -  Slide Down
d  -  Strum Down
u  -  Strum Up
PM -  Palm Mute
<> -  Natural Harmonics
^  -  Vibrato






[Intro] - [CALEB] @ 00:06 X2
                                    [Let Ring]--¬
    A chord diagramE MajorE                                            |
e |-0-----0--------0-----0--------0-----0--------0-------------------------------------|
A chord diagramBB |-0-----0--------0-----0--------0-----0--------0-------------------------------------|
A chord diagramG+G |-1-----1--x-1---1-----1--x-1---1-----1--x-1---1-------------------------------------|
A chord diagramD MajorD |-2-----2--x-2---2-----2--x-2---2-----2--x-2---2-------------------------------------|
A chord diagramA augmentedA |-2-----2--x-2---2-----2--x-2---2-----2--x-2---2-------------------------------------|
A chord diagramE MajorE |----------x-0------------x-0------------x-0-----------------------------------------|
    u     u  d u   u     u  d u   u     u  d u   u


        - [MATTHEW] @ 00:06 X2

e |------------------------------------------------------------------------------------
A chord diagramBB |------------------------------------------------------------------------------------
A chord diagramG+G |------------------------------------------------------------------------------------
A chord diagramD MajorD |----------------------------------------------2-------------------------------------
A chord diagramA augmentedA |-------7--------------------------------------2-------------------------------------
A chord diagramE MajorE |-0----0-0-9-7---0----070-5-4---0----050-3-2---0-------------------------------------

   ----------------------------------------------0-------------------------------------|
   ----------------------------------------------0-------------------------------------|
   ----------------------------------------------1-------------------------------------|
   ----------------------------------------------2-------------------------------------|
   -------7--------------------------------------2-------------------------------------|
   -0----0-0-9-7---0----070-5-4---0----050-3-2---0-------------------------------------|



[Verse 1] - [CALEB] X2 - [Play a bit softer/quieter than the intro]


"...[Pro-o-o-o-zay-sha]"             [Let Ring]--¬
    A chord diagramE MajorE                                            |
e |-0-----0--------0-----0--------0-----0--------0-------------------------------------|
A chord diagramBB |-0-----0--------0-----0--------0-----0--------0-------------------------------------|
A chord diagramG+G |-1-----1--x-1---1-----1--x-1---1-----1--x-1---1-------------------------------------|
A chord diagramD MajorD |-2-----2--x-2---2-----2--x-2---2-----2--x-2---2-------------------------------------|
A chord diagramA augmentedA |-2-----2--x-2---2-----2--x-2---2-----2--x-2---2-------------------------------------|
A chord diagramE MajorE |----------x-0------------x-0------------x-0-----------------------------------------|
    u     u  d u   u     u  d u   u     u  d u   u


          - [MATTHEW] (NOTHING PLAYED)



[Bridge] - [CALEB]

"...speakin' and a kissin' her mouth.

    A chord diagramC# minorC#m                        A chord diagramBB
e |------------------------------------------------------------------------------------|
A chord diagramBB |-9--------------------------7-------------------------------------------------------|
A chord diagramG+G |-9--------------------------8-------------------------------------------------------|
A chord diagramD MajorD |-11-------------------------9-------------------------------------------------------|
A chord diagramA augmentedA |-11-------------------------9-------------------------------------------------------|
A chord diagramE MajorE |-9--------------------------7-------------------------------------------------------|


         - [MATTHEW]

"...speakin' and a kissin' her mouth.

    A chord diagramC# minorC#m                    A chord diagramG#G#  A chord diagramBB
e |------------------------------------------------------------------------------------|
A chord diagramBB |-5----------------------------------------------------------------------------------|
A chord diagramG+G |-6----------------------5-/-8-------------------------------------------------------|
A chord diagramD MajorD |-6----------------------6-/-9-------------------------------------------------------|
A chord diagramA augmentedA |-4----------------------6-/-9-------------------------------------------------------|
A chord diagramE MajorE |------------------------4-/-7-------------------------------------------------------|



[Chorus 1] - [CALEB] X2

    A chord diagramE MajorE
e |-0-----0----0---0-----0----0---0-----0----0---0-----0----0--------------------------
A chord diagramBB |-0-----0----0---0-----0----0---0-----0----0---0-----0----0--------------------------
A chord diagramG+G |-1-----1----1---1-----1----1---1-----1----1---1-----1----1--------------------------
A chord diagramD MajorD |-2-----2--------2-----2--------2-----2--------2-----2-------------------------------
A chord diagramA augmentedA |-2-----2--------2-----2--------2-----2--------2-----2-------------------------------
A chord diagramE MajorE |------------------------------------------------------------------------------------
    u     u    u   u     u    u   u     u    u   u     u

                                    [Let Ring]--¬
    A chord diagramE MajorE                                            |
   -0-----0--------0-----0--------0-----0--------0-------------------------------------|
   -0-----0--------0-----0--------0-----0--------0-------------------------------------|
   -1-----1--x-1---1-----1--x-1---1-----1--x-1---1-------------------------------------|
   -2-----2--x-2---2-----2--x-2---2-----2--x-2---2-------------------------------------|
   -2-----2--x-2---2-----2--x-2---2-----2--x-2---2-------------------------------------|
   ----------x-0------------x-0------------x-0-----------------------------------------|
    u     u  d u   u     u  d u   u     u  d u   u


           - [MATTHEW]

    A chord diagramE MajorE
e |------------------------------------------------------------------------------------
A chord diagramBB |------------------------------------------------------------------------------------
A chord diagramG+G |-1-----1--------1-----1--------1-----1--------1-----1-------------------------------
A chord diagramD MajorD |-2-----2--------2-----2--------2-----2--------2-----2-------------------------------
A chord diagramA augmentedA |-2-----2--------2-----2--------2-----2--------2-----2-------------------------------
A chord diagramE MajorE |-0-----0--------0-----0--------0-----0--------0-----0-------------------------------

   ----------------------------------------------0-------------------------------------|
   ----------------------------------------------0-------------------------------------|
   ----------------------------------------------1-------------------------------------|
   ----------------------------------------------2-------------------------------------|
   -------7--------------------------------------2-------------------------------------|
   -0----0-0-9-7---0----070-5-4---0----050-3-2---0-------------------------------------|



[Verse 2] - [CALEB] X2 - [Play a bit softer/quieter than the intro]


                                     [Let Ring]--¬
    A chord diagramE MajorE                                            |
e |-0-----0--------0-----0--------0-----0--------0-------------------------------------|
A chord diagramBB |-0-----0--------0-----0--------0-----0--------0-------------------------------------|
A chord diagramG+G |-1-----1--x-1---1-----1--x-1---1-----1--x-1---1-------------------------------------|
A chord diagramD MajorD |-2-----2--x-2---2-----2--x-2---2-----2--x-2---2-------------------------------------|
A chord diagramA augmentedA |-2-----2--x-2---2-----2--x-2---2-----2--x-2---2-------------------------------------|
A chord diagramE MajorE |----------x-0------------x-0------------x-0-----------------------------------------|
    u     u  d u   u     u  d u   u     u  d u   u


          - [MATTHEW] (NOTHING PLAYED)



[Bridge] - [CALEB]

"...speakin' and a kissin' her mouth.

    A chord diagramC# minorC#m                        A chord diagramBB
e |------------------------------------------------------------------------------------|
A chord diagramBB |-9--------------------------7-------------------------------------------------------|
A chord diagramG+G |-9--------------------------8-------------------------------------------------------|
A chord diagramD MajorD |-11-------------------------9-------------------------------------------------------|
A chord diagramA augmentedA |-11-------------------------9-------------------------------------------------------|
A chord diagramE MajorE |-9--------------------------7-------------------------------------------------------|


         - [MATTHEW]

"...speakin' and a kissin' her mouth.

    A chord diagramC# minorC#m                    A chord diagramG#G#  A chord diagramBB
e |------------------------------------------------------------------------------------|
A chord diagramBB |-5----------------------------------------------------------------------------------|
A chord diagramG+G |-6----------------------5-/-8-------------------------------------------------------|
A chord diagramD MajorD |-6----------------------6-/-9-------------------------------------------------------|
A chord diagramA augmentedA |-4----------------------6-/-9-------------------------------------------------------|
A chord diagramE MajorE |------------------------4-/-7-------------------------------------------------------|



[Chorus 2] - [CALEB] X2

    A chord diagramE MajorE
e |-0-----0----0---0-----0----0---0-----0----0---0-----0----0--------------------------|
A chord diagramBB |-0-----0----0---0-----0----0---0-----0----0---0-----0----0--------------------------|
A chord diagramG+G |-1-----1----1---1-----1----1---1-----1----1---1-----1----1--------------------------|
A chord diagramD MajorD |-2-----2--------2-----2--------2-----2--------2-----2-------------------------------|
A chord diagramA augmentedA |-2-----2--------2-----2--------2-----2--------2-----2-------------------------------|
A chord diagramE MajorE |------------------------------------------------------------------------------------|
    u     u    u   u     u    u   u     u    u   u     u

"...no-one seems to like it out loud.

    A chord diagramC# minorC#m                         A chord diagramBB
   ------------------------------------------------------------------------------------
   ------------------------------------------------------------------------------------
   -9---------------------------8------------------------------------------------------
   -11--------------------------9------------------------------------------------------
   -11--------------------------9------------------------------------------------------
   -9---------------------------7------------------------------------------------------

    A chord diagramE MajorE
   -0-----0----0---0-----0----0---0-----0----0---0-----0----0--------------------------|
   -0-----0----0---0-----0----0---0-----0----0---0-----0----0--------------------------|
   -1-----1----1---1-----1----1---1-----1----1---1-----1----1--------------------------|
   -2-----2--------2-----2--------2-----2--------2-----2-------------------------------|
   -2-----2--------2-----2--------2-----2--------2-----2-------------------------------|
   ------------------------------------------------------------------------------------|
    u     u    u   u     u    u   u     u    u   u     u


           - [MATTHEW]

    A chord diagramE MajorE
e |------------------------------------------------------------------------------------
A chord diagramBB |------------------------------------------------------------------------------------
A chord diagramG+G |-1-----1--------1-----1--------1-----1--------1-----1-------------------------------
A chord diagramD MajorD |-2-----2--------2-----2--------2-----2--------2-----2-------------------------------
A chord diagramA augmentedA |-2-----2--------2-----2--------2-----2--------2-----2-------------------------------
A chord diagramE MajorE |-0-----0--------0-----0--------0-----0--------0-----0-------------------------------

"...no-one seems to like it out loud.

    A chord diagramC# minorC#m                     A chord diagramG#G#  A chord diagramBB
   ------------------------------------------------------------------------------------
   -5----------------------------------------------------------------------------------
   -6-----------------------5-/-8------------------------------------------------------
   -6-----------------------6-/-9------------------------------------------------------
   -4-----------------------6-/-9------------------------------------------------------
   -------------------------4-/-7------------------------------------------------------

   ------------------------------------------------------------------------------------|
   ------------------------------------------------------------------------------------|
   -1-----1--------1-----1--------1-----1--------1-----1-------------------------------|
   -2-----2--------2-----2--------2-----2--------2-----2-------------------------------|
   -2-----2--------2-----2--------2-----2--------2-----2-------------------------------|
   -0-----0--------0-----0--------0-----0--------0-----0-------------------------------|


[Middle 8/Solo] - [CALEB]

    A chord diagramBb majorBb                                   E*
e |-6--6-----6-----6-----6-----6-----6---12--12----12-12--12---12-12-------------------
A chord diagramBB |-6--6-----6-----6-----6-----6-----6---12--12----12-12--12---12-12--0----------------
A chord diagramG+G |-7--7-----7-----7-----7-----7-----7---13--13----13-13--13---13-13--0----------------
A chord diagramD MajorD |-8--8-----8-----8-----8-----8-----8---14--14----14-14--14---14-14--0----------------
A chord diagramA augmentedA |-8--8-----8-----8-----8-----8-----8---14--14----14-14--14---14-14--0----------------
A chord diagramE MajorE |-6--6-----6-----6-----6-----6-----6---12--12----12-12--12---12-12-------------------

    A chord diagramBb majorBb                                   A chord diagramBB       A chord diagramG+G      A chord diagramE MajorE
   -6--6-----6-----6-----6-----6---------777-7---3--3---0------------------------------|
   -6--6-----6-----6-----6-----6---------777-7---3--3---0------------------------------|
   -7--7-----7-----7-----7-----7---------888-8---4--4---1------------------------------|
   -8--8-----8-----8-----8-----8---------999-9---5--5---2------------------------------|
   -8--8-----8-----8-----8-----8---------999-9---5--5---2------------------------------|
   -6--6-----6-----6-----6-----6---------777-7---3--3---0------------------------------|


                - [MATTHEW]

e |-9-9-9-9--------------9-----------------------9-9-9-9-------------------------------
A chord diagramBB |-9-9-9-9---------6----9---------6----9-----6--9-9-9-9---------6---------------------
A chord diagramG+G |----------10--8--6-------10--8--6-------8--6-----------10--8--6-/-12--14-12--14b(16)
A chord diagramD MajorD |------------------------------------------------------------------------------------
A chord diagramA augmentedA |------------------------------------------------------------------------------------
A chord diagramE MajorE |------------------------------------------------------------------------------------


   --------------12-------12--12--12---15b(17)-12-----12-----15b(17)-12-----12---------
   -12--12-12-12-15b(17)-(17)(17)(17)----------15b(17)15b(17)--------15b(17)15b(17)----
   ------------------------------------------------------------------------------------
   ------------------------------------------------------------------------------------
   ------------------------------------------------------------------------------------
   ------------------------------------------------------------------------------------

                                           A chord diagramBB     A chord diagramG+G      A chord diagramE MajorE
   -12-------15p12--15b(17)--15--12--------7-7---3------0------------------------------|
   -15b(17)--------------------------------7-7---3------0------------------------------|
   ----------------------------------------8-8---4------1------------------------------|
   ----------------------------------------9-9---5------2------------------------------|
   ----------------------------------------9-9---5------2------------------------------|
   ----------------------------------------7-7---3------0------------------------------|



[Chorus 3] - NOTHING PLAYED BUT BASS AND DRUMS UNTIL...

           - [MATTHEW] @ 01:37 (Start off Palm Muted and then play full)

    A chord diagramE5E5
e |------------------------------------------------------------------------------------|
A chord diagramBB |------------------------------------------------------------------------------------|
A chord diagramG+G |-99--99--99--99--99--99--99--99--99--99--99--99--99--99--99--9----------------------|
A chord diagramD MajorD |-99--99--99--99--99--99--99--99--99--99--99--99--99--99--99--9----------------------|
A chord diagramA augmentedA |-77--77--77--77--77--77--77--77--77--77--77--77--77--77--77--7----------------------|
A chord diagramE MajorE |------------------------------------------------------------------------------------|



[Outro] - [CALEB] @ 01:42

    A chord diagramE minorEm
e |------------------------------------------------------------------------------------
A chord diagramBB |------------------------------------------------------------------------------------
A chord diagramG+G |-12----12---12--14----12---12--12----12---12--12----12---12-------------------------
A chord diagramD MajorD |-14----14---14--12----14---14--14----14---14--14----14---14-------------------------
A chord diagramA augmentedA |-14----14---14--14----14---14--14----14---14--14----14---14-------------------------
A chord diagramE MajorE |-12----12-------12----12-------12----12-------12----12------------------------------

    A chord diagramE minorEm
   ------------------------------------------------------------------------------------
   ------------------------------------------------------------------------------------
   -12----12---12--14----12---12--12----12---12--12----12---12-------------------------
   -14----14---14--12----14---14--14----14---14--14----14---14-------------------------
   -14----14---14--14----14---14--14----14---14--14----14---14-------------------------
   -12----12-------12----12-------12----12-------12----12------------------------------

    A chord diagramE minorEm
   --0---------------------------------------------------------------------------------|
   --0---------------------------------------------------------------------------------|
   --0---------------------------------------------------------------------------------|
   -14--LET CHORD RING-----------------------------------------------------------------|
   -14---------------------------------------------------------------------------------|
   -12---------------------------------------------------------------------------------|


        - [MATTHEW]

    A chord diagramE minorEm
e |-7-----7--------7-----7--------7-----7--------7-----7-------------------------------
A chord diagramBB |-8-----8--------8-----8--------8-----8--------8-----8-------------------------------
A chord diagramG+G |-9-----9--------9-----9--------9-----9--------9-----9-------------------------------
A chord diagramD MajorD |-9-----9--------9-----9--------9-----9--------9-----9-------------------------------
A chord diagramA augmentedA |-7-----7--------7-----7--------7-----7--------7-----7-------------------------------
A chord diagramE MajorE |------------------------------------------------------------------------------------

    A chord diagramE minorEm
   -7-----7----7---7-----7----7---7-----7----7---7-----7----7--------------------------
   -8-----8----8---8-----8----8---8-----8----8---8-----8----8--------------------------
   -9-----9----9---9-----9----9---9-----9----9---9-----9----9--------------------------
   -9-----9----9---9-----9----9---9-----9----9---9-----9----9--------------------------
   -7-----7----7---7-----7----7---7-----7----7---7-----7----7--------------------------
   ------------------------------------------------------------------------------------

    A chord diagramE minorEm
   -7----------------------------------------------------------------------------------|
   -8----------------------------------------------------------------------------------|
   -9---LET CHORD RING-----------------------------------------------------------------|
   -9----------------------------------------------------------------------------------|
   -7----------------------------------------------------------------------------------|
   ------------------------------------------------------------------------------------|

Almost there ...

Sign in to get your own page with links to favourite songs and more. You are just one click away...

Login with Facebook Login with Google