Log in

One click and you are in

Login with Facebook Login with Google

Why sign up and log in

Guitar Tabs Explorer
Kings Of Leon bass tabs for Bucket

Bass tabs

I heard and seen it a couple of times now and this is as close to perfect as
I can get until I ask Jared to show me how to play it.
Listen to the song and you'll be able to pick up the timing and how often you play each part.


Verse

G-14-14-14-14-14-14-14-14---16-16-16-16-16-16-16-16--|
D-12-12-12-12-12-12-12-12---12-12-12-12-12-12-12-12--|
A----------------------------------------------------|
E----------------------------------------------------|
Chorus

G-------------------------------------------------------|
D-------------------------------------------------------|
A-----------------5-5-5-5-5-5-5-5-5-5-5-5-5-5-5-5-------|
E-3>----5>----------------------------------------------|


Verse

G-14-14-14-14-14-14-14-14---16-16-16-16-16-16-16-16--|
D-12-12-12-12-12-12-12-12---12-12-12-12-12-12-12-12--|
A----------------------------------------------------|
E----------------------------------------------------|


Chorus

G-------------------------------------------------------|
D-------------------------------------------------------|
A-----------------5-5-5-5-5-5-5-5-5-5-5-5-5-5-5-5-------|
E-3>----5>----------------------------------------------|


Verse

G-14-14-14-14-14-14-14-14---16-16-16-16-16-16-16-16--|
D-12-12-12-12-12-12-12-12---12-12-12-12-12-12-12-12--|
A----------------------------------------------------|
E----------------------------------------------------|


Chorus

G-------------------------------------------------------|
D-------------------------------------------------------|
A-----------------5-5-5-5-5-5-5-5-5-5-5-5-5-5-5-5-------|
E-3>----5>----------------------------------------------|


Outro

G--------------------------------------------|
D-----------------------7--------------------|
A-----------------5/7------9-7-5-------------|
E-3>--------5>-------------------------------|

Almost there ...

Sign in to get your own page with links to favourite songs and more. You are just one click away...

Login with Facebook Login with Google