Log in

One click and you are in

Login with Facebook Login with Google

Why sign up and log in

Guitar Tabs Explorer
Kings Of Convenience tabs for Little kids

Guitar tabs

 Artist : Kings of convenience
Title : Little kids
Album : Quiet is the new loud
Tabbed by : p.chandeze@infonie.fr
http://p.chandeze.chez.tiscali.fr/
 
 
Riff1 :
------------------------------------------------
----4-----4-----4-----0-----5-----5-----5-----0-
----4-----4-----4-----0-----6-----6-----6-----0-
-6-----6----------------------------------------
-------------------7-----4-----4----------------
-------------7-----------------------5-----5----
 
riff2 :
------------------------------------------------
------------------------------------------------
------------------------------------------------
----------6--4-----4-----------------------6----
----------------6-----6--------------7----------
-2--3--4-----------------7--8--9----------------(x3)
 
---------------------------------------------------------
---------------------------------------------------------
---------------------------------------------------------
----------6--4-----4-------------------------------------
----------------6-----6-----------7--6--4--6--4----------
-2--3--4-----------------7--8--9-----------------2--3--4-
 
to end the 1°verse :
e-4---4---4---4---4---4---4-
 
 
to begin the 2° verse :
------------------------------------------------
-7-----7-----7-----7-----5-----5-----5-----5----
-4-----4-----4-----4-----4-----4-----4-----4----
------------------------------------------------
------------------------------------------------
------------------------------------------------
 
then :
-6-----6-----6-----6-----4-----4-----4-----4----
-7-----7-----7-----7-----5-----5-----5-----5----
-4-----4-----4-----4-----4-----4-----4-----4----
------------------------------------------------
------------------------------------------------
------------------------------------------------

Almost there ...

Sign in to get your own page with links to favourite songs and more. You are just one click away...

Login with Facebook Login with Google