Log in

One click and you are in

Login with Facebook Login with Google

Why sign up and log in

Guitar Tabs Explorer
King Krule guitar tabs for Easy easy

Guitar tabs with lyrics

Learned the whole song by ear


Tuning standard

Well same old Bobby, same old beat
Well yeah they got nothing on me
The same old clutch, same old streets
But yeah they got nothing on me

E[---------------------------------------------------------------]
B[---------------------------------------------------------------]
G[---------------------------------------------------------------]
D[---------------------------------------------------------------]
A[---------------------------------------------------------------]
E[-0-0-0-0-0-0-0-0-0-0-0-0-0-0-0-0-4-4-4-4/7-7-7-7-7-7-7-6-6-6-6-]

And easy come and easy go
Well yeah I'm sure I told you so
Well they just want you for your dough
Man I'm sure I told you so
And with your dead-end job
That's been eating away your life
You feel a little inside
The trouble and strife
And now you spend your evenings
Searching for another life
And yeah I think maybe
I think you've got them in your sights

E[---------------------------------------------------------------]
B[---------------------------------------------------------------]
G[-0-0-0-0-0-0-0-0-0-0-0-0-0-0-0-0-0-0-0-0-0-0-0-0-0-0-0-0-0-0-0-]
D[-0-0-0-0-0-0-0-0-0-0-0-0-0-0-0-0-0-0-0-0-0-0-0-0-0-0-0-0-0-0-0-]
A[-0-0-0-0-0-0-0-0-0-0-0-0-0-0-0-0-0-0-0-0-0-0-0-0-0-0-0-0-0-0-0-]
E[-0-0-0-0-0-0-0-0-0-0-0-0-0-0-0-0-4-4-4-4/5-5-5-5-5-5-5-4-4-4-4-]



           A chord diagramBB            A chord diagramE MajorE
Well, easy easy
A chord diagramE MajorE                            A chord diagramBB              A chord diagramF#F#
There's no need to take that tone
A chord diagramF#F#   A chord diagramBB         A chord diagramE MajorE
Well easy
A chord diagramE MajorE              A chord diagramBB
I'm on the telephone
A chord diagramF#F#
Man just leave us alone


Ow no I should've kept my receipts


E[-------------]
B[-------------]
G[-------------]
D[-------------]
A[-------------]
E[-00-44-77-66-]


Cause the sandwich I bought
Yeah it's been off for a week
And 'low Tesco's stealing my money
When positivity seems hard to reach
I keep my head down and my mouth shut
Cause if you going through hell
We just keep going


E[---------------------------------------------------------------]
B[---------------------------------------------------------------]
G[---------------------------------------------------------------]
D[---------------------------------------------------------------]
A[---------------------------------------------------------------]
E[-0-0-0-0-0-0-0-0-0-0-0-0-0-0-0-0-4-4-4-4/7-7-7-7-7-7-7-6-6-6-6-]

You're easy
So easy
You're easy
Man just leave us alone
I'll be one minute on the phone

Almost there ...

Sign in to get your own page with links to favourite songs and more. You are just one click away...

Login with Facebook Login with Google