Log in

One click and you are in

Login with Facebook Login with Google

Why sign up and log in

Guitar Tabs Explorer
King Gizzard And The Lizard Wizard bass tabs for Minimum brain size

Minimum Brain Size bass tab by King Gizzard And The Lizard Wizard

King Gizzard And The Lizard Wizard bass tabs for Minimum brain size

Bass tabs with lyrics

Tuning: Standard (E A D G)


Intro - Bass starts @ 00:18:

G|9h11-11--9-----9-----------------------------------------------------------------------------------------|
D|----------11p9--11p9----------------------------7--------------------------------------------------------|
A|--------------------12-9-12--9-7-7h9-9--7-7h9-9---7h9-9--7-7h9-9-7\-----------------0--------------------|
E|--------------------------------------------------------------------0h2-2---0-0h2-2---0-0h2-2--0-0h2-2---|

Verse 1 - Starts @ 00:32:
     Riddle me this    Did you ever grow?  Break the spider's legs   Just to feed the crow Sympa-
G|---------------------------------------------------------------------------------11-9--------------------|
D|--------------------------------------------------------------------------------------11-7-/-9-----------|
A|7h9-9-7-9------------7h9-9-7-9------------7h9-9---7h9-------------------7h9-9--9----------------9-9-7p9--|
E|---------------------------------------------------------------------------------------------------------|

-thetic crowds  Are not well endowed  They dance like flies on shit  Swarming in the clouds
G|------------------------------------------------------------------------11-9-------------------11--------|
D|-----------------------------------------------------------------------------11-7-/-9--------------------|
A|------7h9-9-7-9-99-----------7h9-9---7-99----------------------7h9-9---9---------------9-----------------|
E|---------------------------------------------------------------------------------------------------------|


Chorus - Starts @ 00:56:
  This is to all of the people  Who had it coming A few bickies too many (I'm so lonely)
G|-------------------------11------------------9h11-----------------------11----------------------|
D|--------------------------11-------------9h11----------------------------11---------------------|
A|9\\\\------------------------9\\\\----------------9\\\\-------------------------------------7h9-|
E|----------------------------------------------------------------------------10---12--7---7h9----|

 It's to all of the people Who said they couldn't hack it   I'll open their eyes
G|---------------------11--------------------------9h11---------------------11--------------------|
D|----------------------11---------------------9h11--------------------------11-------------------|
A|9\\\\-------------------9\\\\-------------------------9\\\\-------------------------------------|
E|--------------------------------------------------------------------------------10---7--9-------|
       To minimum brain size
G|9h11-11--9-----9-----------------------------------------------------------------------------------------|
D|----------11p9--11p9----------------------------7--------------------------------------------------------|
A|--------------------12-9-12--9-7-7h9-9--7-7h9-9---7h9-9--7-7h9-9-7\-----------------0--------------------|
E|--------------------------------------------------------------------0h2-2---0-0h2-2---0-0h2-2--0-0h2-2---|

Verse 2 - Starts @ 01:37:
   Re-enter...    And refund......cells Do it back-to-front Like nobody else
G|------------------------------------------------------------------------------------|
D|------------------------------------------------------------------------------------|
A|7h9-9-7-9-9---------7h9-9-7h9--9p7-----7h9-9-7-9-9-----7h9-9-7h9-9-7-676--7h9-------|
E|-------------5--7-----------------5--7-------------5--7-----------------------------|
    Stay there...      When you're...   You will not...
G|------------------------------------------------------------------------------------|
D|--------------------------------------------------------------------------------4---|
A|7h9-9-7-9-9---------7h9-9-7h9--9p7-----7h9-9-7-9-9-----7h9-9-7h9-9-7-676------------|
E|-------------5--7-----------------5--7-------------5--7--------------------2--------|

First Bridge without Bass


Chorus - Starts @ 02:26:
   This is to...     Who had...   A few bickies... (I'm so lonely)
G|---------------------------------------------11--9----------------------------------|
D|----------------------------------h7h9-------------11-9-----------------------------|
A|7h9-9-7h9----9p7------7h9-9-7h9--9-----9---9-----------12------------------7h9------|
E|----------------9p7----------------------------------------10--12--7----7h9---------|

 It's to all...      Who said they... Radicalise
G|------------------------------------9h11------------11----------------------------------------------|
D|---------------------------------9h11-----------------11--------------------------------------------|
A|7h9-9-7h9----9p7------7h9-9-7h9----------9\\\\----------------------------9\\\\---break---9\\2//9---|
E|----------------9p7----------------------------------------10--7--9---------------------------------|

G|------------------------------------------------11-9----9--------------------------|
D|----------------------------------------------------11-9--11-9---------------------|
A|---------------------------------------------------------------12-9----------------|
E|0h2-2-0-2----0h2-2-0-2----0h2-2-0-2----0h2-2-0-2-----------------------------------|

G|9h11-11--9-----9-----------------------------------------------------------------------------------------|
D|----------11p9--11p9----------------------------7--------------------------------------------------------|
A|--------------------12-9-12--9-7-7h9-9--7-7h9-9---7h9-9--7-7h9-9-7\-----------------0--------------------|
E|--------------------------------------------------------------------0h2-2---0-0h2-2---0-0h2-2--0-0h2-2---|


Outro - Starts @ 03:28:
  It's pathetic though You're weaker than you know Parasitic mob  Lowest of the low
G|-----------------------------------------------------9--99-/-11---------------------|
D|-------------------------------------------------------9-------9-----9--9--7--------|
A|9-------9--9---9-5--------------5-----5--5---5-7-------------------------------7-9--| (x2)
E|------------------------------------------------------------------------------------|
   At the......all You ain't got the gall You're pissing...Standing on a ball
G|------------------------------------------------------------------------------------|
D|-----------------------------------------------9------------------------------------|
A|-----------------5---------------------7-----------------------------------9----2---| (x2)
E|2-----------------------------------------------------------------------------------|


************************************

| h Hammer-on
| p Pull-off
| \ Slide down
| / Slide up


************************************

Almost there ...

Sign in to get your own page with links to favourite songs and more. You are just one click away...

Login with Facebook Login with Google