Log in

One click and you are in

Login with Facebook Login with Google

Why sign up and log in

Guitar Tabs Explorer
King Gizzard And The Lizard Wizard bass tabs for Gamma knife

Gamma Knife bass tab by King Gizzard And The Lizard Wizard

King Gizzard And The Lizard Wizard bass tabs for Gamma knife

Bass tabs

Tuning: Standard (E A D G)


Intro:

t|1---&---2---&---3---&---4---&---5---&---6---&---|1---&---2---&---3---&---4---&---5---&---|

G|---Silence--------------------------------------|---Silence------------------------------|
D|---Silence--------------------------------------|---Silence------------------------------|
A|---Silence--------------------------------------|---Silence------------------------------|
E|---Silence--------------------------------------|---Silence------------------------------|
t|1---&---2---&---3---&---4---&---5---&---6---&---|1---&---2---&---3---&---4---&---5---&---|

G|---Silence--------------------------------------|----------------------------------------|
D|---Silence--------------------------------------|--------------------------------3-h-5---|
A|---Silence--------------------------------------|----------------------------------------|
E|---Silence--------------------------------------|----------------------------------------|



Refrain:

t||1---&---2---&---3---&---4---&---5---&---6---&---|1---&---2---&---3---&---4---&---5---&---6---&---||
                                                  x4
G||------------------------------------------------|------------------------------------------------||
D||------------------------------------------------|----------------------------------------3-h-5---||
A||5-------5-------5-------5-------5-------5-------|5-------5-------5-------5-------5---------------||
E||------------------------------------------------|------------------------------------------------||



Verse 1:

t||1---&---2---&---3---&---4---&---5---&---6---&---||1---&---2---&---3---&---4---&---5---&---6---&---|
                          x3
G||------------------------------------------------||------------------------------------------------|
D||------------------------------------------------||------------------------------------2-----------|
A||5-------5---5-------0---5-------5---5-------0---||5-------5---5-------0---5-----------------------|
E||------------------------------------------------||------------------------------------------------|

t|1---&---2---&---3---&---4---&---5---&---6---&---|1---&---2---&---3---&---4---&---5---&---6---&---|

G|------------------------------------------------|------------------------------------------------|
D|3-h-5---5---5---5---5---3-h-5---5---5---5---5---|3-h-5---5---5---5---5---3-h-5---5---------------|
A|------------------------------------------------|------------------------------------3-----------|
E|------------------------------------------------|------------------------------------------------|



Verse 2:

t||1---&---2---&---3---&---4---&---5---&---6---&---||1---&---2---&---3---&---4---&---5---&---6---&---|
                          x3
G||------------------------------------------------||------------------------------------------------|
D||------------------------------------------------||------------------------------------------------|
A||5-------5---5-------0---5-------5---5-------0---||5-------5---5-------0---5-----------------------|
E||------------------------------------------------||------------------------------------0-----------|


t|1---&---2---&---3---&---4---&---5---&---6---&---|1---&---2---&---3---&---4---&---5---&---6---&---|

G|------------------------------------------------|------------------------------------------------|
D|------------------------------------------------|----------------------------------------3-h-5---|
A|------------------------------------------------|------------------------------------------------|
E|1-h-3---3---3-------0---1-h-3---3---3-------0---|1-h-3---3---3-------1---3-----------------------|



Refrain:

t||1---&---2---&---3---&---4---&---5---&---6---&---|1---&---2---&---3---&---4---&---5---&---6---&---||
                                                  x4
G||------------------------------------------------|------------------------------------------------||
D||------------------------------------------------|----------------------------------------3-h-5---||
A||5-------5-------5-------5-------5-------5-------|5-------5-------5-------5-------5---------------||
E||------------------------------------------------|------------------------------------------------||



Chorus:

t|1---&---2---&---3---&---4---&---5---&---6---&---|1---&---2---&---3---&---4---&---5---&---6---&---|

G|------------------------------------------------|------------------------------------------------|
D|3-----------3------(0)--3---------------5-h-7---|5-----------5------(0)--5---------------7-h-9---|
A|------------------------------------------------|------------------------------------------------|
E|------------------------------------------------|------------------------------------------------|


t|1---&---2---&---3---&---4---&---5---&---6---&---|

G|------------------------------------------------|
D|7-----------7------(0)--7---------------3-h-5---|
A|------------------------------------------------|
E|------------------------------------------------|



Refrain:

t|1---&---2---&---3---&---4---&---5---&---6---&---|1---&---2---&---3---&---4---&---5---&---6---&---|

G|------------------------------------------------|------------------------------------------------|
D|------------------------------------------------|----------------------------------------3-h-5---|
A|5-------5-------5-------5-------5-------5-------|5-------5-------5-------5-------5---------------|
E|------------------------------------------------|------------------------------------------------|



Bridge 1:

t||1---&---2---&---3---&---4---&---5---&---6---&---|1---&---2---&---3---&---4---&---5---&---||
                                              x3
G||------------------------------------------------|----------------------------------------||
D||------------------------------------------------|----------------------------------------||
A||------------------------------------------------|--------------------------------3-h-5---||
E||5-------5---5-------0---5-------5---5-------0---|5-------5---5-------0---5---------------||


t|1---&---2---&---3---&---4---&---5---&---6---&---|1---&---2---&---3---&---4---&---5---&---|

G|------------------------------------------------|----------------------------------------|
D|------------------------------------------------|--------------------------------3-h-5---|
A|------------------------------------------------|----------------------------------------|
E|5-------5---5-------0---5-------5---5-------0---|5-------5---5-------0---5---------------|



Refrain:

t|1---&---2---&---3---&---4---&---5---&---6---&---|1---&---2---&---3---&---4---&---5---&---6---&---|

G|------------------------------------------------|------------------------------------------------|
D|------------------------------------------------|----------------------------------------3-h-5---|
A|5-------5-------5-------5-------5-------5-------|5-------5-------5-------5-------5---------------|
E|------------------------------------------------|------------------------------------------------|



Bridge 2:

t||1---&---2---&---3---&---4---&---5---&---6---&---|1---&---2---&---3---&---4---&---5---&---6---&---||
                                                  x3
G||------------------------------------------------|------------------------------------------------||
D||------------------------------------------------|----------------------------------------3-h-5---||
A||5-------5---5---5-------5-------5---5---5-------|5-------5---5---5-------5-------5---5-----------||
E||------------------------------------------------|------------------------------------------------||


t|1---&---2---&---3---&---4---&---5---&---6---&---|1---&---2---&---3---&---4---&---5---&---6---&---|

G|------------------------------------------------|------------------------------------------------|
D|------------------------------------------------|3-h-5-------5-h-7-------3-h-5-------1-h-3-------|
A|5-------5---5---5-------5-------5---5---5-------|------------------------------------------------|
E|------------------------------------------------|------------------------------------------------|



Verse 3:

t||1---&---2---&---3---&---4---&---5---&---6---&---||1---&---2---&---3---&---4---&---5---&---6---&---|
                          x3
G||------------------------------------------------||------------------------------------------------|
D||------------------------------------------------||------------------------------------2-----------|
A||5-------5---5-------0---5-------5---5-------0---||5-------5---5-------0---5-----------------------|
E||------------------------------------------------||------------------------------------------------|


t|1---&---2---&---3---&---4---&---5---&---6---&---|1---&---2---&---3---&---4---&---5---&---6---&---|

G|------------------------------------------------|------------------------------------------------|
D|3-h-5---5---5---5---5---3-h-5---5---5---5---5---|3-h-5---5---5---5---5---3-h-5---5---------------|
A|------------------------------------------------|------------------------------------3-----------|
E|------------------------------------------------|------------------------------------------------|



Verse 4:

t||1---&---2---&---3---&---4---&---5---&---6---&---||1---&---2---&---3---&---4---&---5---&---6---&---|
                          x3
G||------------------------------------------------||------------------------------------------------|
D||------------------------------------------------||------------------------------------------------|
A||5-------5---5-------0---5-------5---5-------0---||5-------5---5-------0---5-----------------------|
E||------------------------------------------------||------------------------------------0-----------|


t|1---&---2---&---3---&---4---&---5---&---6---&---|1---&---2---&---3---&---4---&---5---&---6---&---|

G|------------------------------------------------|------------------------------------------------|
D|------------------------------------------------|----------------------------------------3-h-5---|
A|------------------------------------------------|------------------------------------------------|
E|1-h-3---3---3-------0---1-h-3---3---3-------0---|1-h-3---3---3-------1---3-----------------------|



Refrain:

t||1---&---2---&---3---&---4---&---5---&---6---&---|1---&---2---&---3---&---4---&---5---&---6---&---||
                                                  x4
G||------------------------------------------------|------------------------------------------------||
D||------------------------------------------------|----------------------------------------3-h-5---||
A||5-------5-------5-------5-------5-------5-------|5-------5-------5-------5-------5---------------||
E||------------------------------------------------|------------------------------------------------||



Chorus:

t|1---&---2---&---3---&---4---&---5---&---6---&---|1---&---2---&---3---&---4---&---5---&---6---&---|

G|------------------------------------------------|------------------------------------------------|
D|3-----------3------(0)--3---------------5-h-7---|5-----------5------(0)--5---------------7-h-9---|
A|------------------------------------------------|------------------------------------------------|
E|------------------------------------------------|------------------------------------------------|


t|1---&---2---&---3---&---4---&---5---&---6---&---|1---&---2---&---3---&---4---&---5---&---6---&---|

G|------------------------------------------------|------------------------------------------------|
D|7-----------7------(0)--7---------------9-h-11--|9-----------9------(0)--9---------------3-h-5---|
A|------------------------------------------------|------------------------------------------------|
E|------------------------------------------------|------------------------------------------------|



Refrain:

t|1---&---2---&---3---&---4---&---5---&---6---&---|1---&---2---&---3---&---4---&---5---&---6---&---|

G|------------------------------------------------|------------------------------------------------|
D|------------------------------------------------|----------------------------------------3-h-5---|
A|5-------5-------5-------5-------5-------5-------|5-------5-------5-------5-------5---------------|
E|------------------------------------------------|------------------------------------------------|



Bridge 1:

t||1---&---2---&---3---&---4---&---5---&---6---&---|1---&---2---&---3---&---4---&---5---&---||
                                              x3
G||------------------------------------------------|----------------------------------------||
D||------------------------------------------------|----------------------------------------||
A||------------------------------------------------|--------------------------------3-h-5---||
E||5-------5---5-------0---5-------5---5-------0---|5-------5---5-------0---5---------------||


t|1---&---2---&---3---&---4---&---5---&---6---&---|1---&---2---&---3---&---4---&---5---&---|

G|------------------------------------------------|----------------------------------------|
D|------------------------------------------------|--------------------------------3-h-5---|
A|------------------------------------------------|----------------------------------------|
E|5-------5---5-------0---5-------5---5-------0---|5-------5---5-------0---5---------------|



Refrain:

t|1---&---2---&---3---&---4---&---5---&---6---&---|1---&---2---&---3---&---4---&---5---&---6---&---|

G|------------------------------------------------|------------------------------------------------|
D|------------------------------------------------|----------------------------------------3-h-5---|
A|5-------5-------5-------5-------5-------5-------|5-------5-------5-------5-------5---------------|
E|------------------------------------------------|------------------------------------------------|



Bridge 2:

t||1---&---2---&---3---&---4---&---5---&---6---&---|1---&---2---&---3---&---4---&---5---&---||
                                              x5
G||------------------------------------------------|----------------------------------------||
D||------------------------------------------------|--------------------------------3-h-5---||
A||5-------5---5-------0---5-------5---5-------0---|5-------5---5-------0---5---------------||
E||------------------------------------------------|----------------------------------------||


t|1---&---2---&---3---&---4---&---5---&---6---&---|1---&---2---&---3---&---4---&---5---&---|

G|------------------------------------------------|----------------------------------------|
D|------------------------------------------------|--------------------------------3-------|
A|5-------5---5-------0---5-------5---5-------0---|5-------5---5-------0---5---------------|
E|------------------------------------------------|----------------------------------------|


t||1---&---2---&---3---&---4---&---5---&---6---&---|1---&---2---&---3---&---4---&---5---&---||1-------|
                                              x2
G||------------------------------------------------|----------------------------------------||--------|
D||/12---------10----------9-----------10----------|7-----------9-----------5---------------||/12~----|
A||------------------------------------------------|----------------------------------------||--------|
E||------------------------------------------------|----------------------------------------||--------|



Solo:


t||1---&---2---&---3---&---4---&---5---&---6---&---|1---&---2---&---3---&---4---&---5---&---||
                                              x16
G||---Silence--------------------------------------|---Silence------------------------------||
D||---Silence--------------------------------------|---Silence------------------------------||
A||---Silence--------------------------------------|---Silence------------------------------||
E||---Silence--------------------------------------|---Silence------------------------------||


t|1---&---2---&---3---&---4---&---5---&---6---&---|1---&---2---&---3---&---4---&---5---&---|

G|------------------------------------------------|----------------------------------------|
D|/12---------10----------9-----------10----------|7-----------9-----------5---------------|
A|------------------------------------------------|----------------------------------------|
E|------------------------------------------------|----------------------------------------|


t|1---&---2---&---3---&---4---&---5---&---6---&---|1---&---2---&---3---&---4---&---5---&---|

G|------------------------------------------------|----------------------------------------|
D|/12---------10----------9-----------10----------|7-----------9-----------5-------3-h-5---|
A|------------------------------------------------|----------------------------------------|
E|------------------------------------------------|----------------------------------------|



Refrain:

t||1---&---2---&---3---&---4---&---5---&---6---&---|1---&---2---&---3---&---4---&---5---&---6---&---||
                                                  x4
G||------------------------------------------------|------------------------------------------------||
D||------------------------------------------------|----------------------------------------3-h-5---||
A||5-------5-------5-------5-------5-------5-------|5-------5-------5-------5-------5---------------||
E||------------------------------------------------|------------------------------------------------||



Chorus:

t|1---&---2---&---3---&---4---&---5---&---6---&---|1---&---2---&---3---&---4---&---5---&---6---&---|

G|------------------------------------------------|------------------------------------------------|
D|3-----------3------(0)--3---------------5-h-7---|5-----------5------(0)--5---------------7-h-9---|
A|------------------------------------------------|------------------------------------------------|
E|------------------------------------------------|------------------------------------------------|


t|1---&---2---&---3---&---4---&---5---&---6---&---|1-------|

G|------------------------------------------------|--------|
D|7-----------7------(0)--7---------------3-h-5---|--------|
A|------------------------------------------------|5-------|
E|------------------------------------------------|--------|


************************************

| h Hammer-on
|(n) Ghost note
| ~ Vibrato

************************************

Almost there ...

Sign in to get your own page with links to favourite songs and more. You are just one click away...

Login with Facebook Login with Google