Log in

One click and you are in

Login with Facebook Login with Google

Why sign up and log in

Guitar Tabs Explorer
King Gizzard And The Lizard Wizard bass tabs for Cranes planes migraines

Cranes Planes Migraines bass tab by King Gizzard And The Lizard Wizard

King Gizzard And The Lizard Wizard bass tabs for Cranes planes migraines

Bass tabs

Tuning: Standard (E A D G)


Intro:

G|------------------------------|
D|------------------------------|  x4
A|-----7----9---10---9--7--9--7-|
E|--0---------------------------|

G|-------------------------9h11-|
D|------------------9--10-------|  x4
A|-----7----9---10--------------|
E|--0---------------------------|

G|------------------------------|
D|------------------------------|  x4
A|-----7----9---10---9--7--9--7-|
E|--0---------------------------|

G|-------------------------9h11-|
D|------------------9--10-------|  x4
A|-----7----9---10--------------|
E|--0---------------------------|

G|------------------------------|
D|--------------------9------10-|  x3
A|-----------------------7------|
E|---8--------7-----------------|

G|------------------------------|
D|------------------------------|
A|------------------------------|
E|----8------------------7------|

G|------------------------------|
D|------------------------------|  x4
A|-----7----9---10---9--7--9--7-|
E|--0---------------------------|

G|-------------------------9h11-|
D|------------------9--10-------|  x4
A|-----7----9---10--------------|
E|--0---------------------------|

G|------------------------------|
D|--------------------9------10-|  x3
A|-----------------------7------|
E|---8--------7-----------------|

G|------------------------------|
D|------------------------------|
A|------------------------------|
E|----8------------------7------|


************************************


| h  Hammer-on

************************************

Almost there ...

Sign in to get your own page with links to favourite songs and more. You are just one click away...

Login with Facebook Login with Google