Log in

One click and you are in

Login with Facebook Login with Google

Why sign up and log in

Guitar Tabs Explorer
King Gizzard And The Lizard Wizard bass tabs for Countdown

Countdown bass tab by King Gizzard And The Lizard Wizard

King Gizzard And The Lizard Wizard bass tabs for Countdown

Bass tabs

Tuning: Standard (E A D G)


Intro:

N.C
Verse 1:
   1  2   3   4
G|--------------------------|
D|--------------------------|
A|--------------------------|
E|----5-----------------5-4-|

   1   2  3   4   5
G|---------------------------------|
D|---------------------------------|
A|---------------------------------|
E|----3----------------------------|

   1   2   3   4   5   6
G|----------------------------------------|
D|-----------------------------2-----5----|
A|----3------------------4----------------|
E|----------------------------------------|


   1   2   3   4   5   6   7
G|------------------------------------------------|
D|------------------------------------------------|
A|-----------------7------------------------------|
E|----5-------------------0-----------------------|

   1   2   3   4   5   6   7   8
G|---------------------------------------------------------|
D|-----------------3---------------------------------------|
A|---------------------------------------------------------|
E|---1-------1----------1----2----3------------------------|


   1   2   3   4   5   6   7   8   9
G|-----------------------------------------------------------------|
D|----------------------------------------------------5-----7------|
A|-----------------5------7-------------4------7-------------------|
E|----------6--------------------5---------------------------------|


Verse 2:

   1  2   3   4
G|--------------------------|
D|--------------------------|
A|--------------------------|
E|----5---------------5--4--|

   1   2  3   4   5
G|---------------------------------|
D|---------------------------------|
A|---------------------------------|
E|----3-----------------------------|

   1   2   3   4   5   6
G|----------------------------------------|
D|-----------------------------2-----5----|
A|----3------------------4----------------|
E|----------------------------------------|


   1   2   3   4   5   6   7
G|------------------------------------------------|
D|------------------------------------------------|
A|------------------------------------------------|
E|----5------------7------0-----------------------|


   1   2   3   4   5   6   7   8
G|---------------------------------------------------------|
D|-----------------3---------------------------------------|
A|---------------------------------------------------------|
E|---1-------1----------1----2----3------------------------|


   1   2   3   4   5   6   7   8   9
G|-----------------------------------------------------------------|
D|----------------------------------------------------5-----7------|
A|-----------------5------7-------------4------7-------------------|
E|----------6--------------------5---------------------------------|


Chorus 2x:

   1  2   3   4
G|--------------------------|
D|--------------------------|
A|---5----------------------|
E|--------------------------|

   1   2  3   4   5
G|---------------------------------|
D|---------------------------------|
A|----3----------------------------|
E|---------------------------------|

  1  2   3   4
G|--------------------------|
D|--------------------------|
A|--------------------------|
E|--6---------------------3-|

   1   2  3   4   5
G|---------------------------------|
D|---------------------------------|
A|---------------------------------|
E|----5----------------------------|


Chorus 2 2x:

  1  2   3   4
G|------------5-------------|
D|--------------------------|
A|-3--------------3----2----|
E|--------------------------|

   1   2  3   4   5
G|---------------3~----------------|
D|---------------------------------|
A|----1----------------------------|
E|---------------------------------|

  1  2   3   4
G|--------------------------|
D|------------6-------------|
A|--------------------------|
E|-4--------------4----1----|

End of First Repeat:
   1   2  3   4   5
G|----------------~----------------|
D|---------------5-----5-----------|
A|---------------------------------|
E|----3-----------------------3----|

End of Second Repeat:
   1   2  3   4   5
G|----------------~----------------|
D|---------------------------------|
A|---------------------------------|
E|----3----------------------------|


Verse 3:

   1  2   3   4
G|--------------------------|
D|--------------------------|
A|----5---------------------|
E|--------------------------|

   1   2  3   4   5
G|----------------~----------------|
D|---------------------------------|
A|---------------------------------|
E|----3----------------------------|

   1   2   3   4   5   6
G|----------------------------------------|
D|-----------------------------2-----5----|
A|----3------------------4----------------|
E|----------------------------------------|

   1   2   3   4   5   6   7
G|------------------------------------------------|
D|------------------------------------------------|
A|-----------------5------------------------------|
E|----5------------------0------------------------|

   1   2   3   4   5   6   7   8
G|---------------------------------------------------------|
D|-----------------3---------------------------------------|
A|---------------------------------------------------------|
E|---1-------1----------1----2----3------------------------|

   1   2   3   4   5   6   7   8   9
G|-----------------------------------------------------------------|
D|----------------------------------------------------5-----7------|
A|-----------------5------7-------------4------7-------------------|
E|----------6--------------------5---------------------------------|


Verse 4:

   1  2   3   4
G|--------------------------|
D|--------------------------|
A|----5---------------------|
E|--------------------------|

   1   2  3   4   5
G|----------------~----------------|
D|---------------------------------|
A|---------------------------------|
E|----3----------------------------|

   1   2   3   4   5   6
G|----------------------------------------|
D|-----------------------------2-----5----|
A|----3------------------4----------------|
E|----------------------------------------|

   1   2   3   4   5   6   7
G|------------------------------------------------|
D|------------------------------------------------|
A|------------------------------------------------|
E|----5------------------0------------------------|

   1   2   3   4   5   6   7   8
G|---------------------------------------------------------|
D|-----------------3------------------------5--------------|
A|---------------------------------------------------------|
E|---1-------1----------1----2----3------------------------|

   1   2   3   4   5   6   7   8   9
G|-----------------------------------------------------------------|
D|----------------------------------------------------5-----7------|
A|-----------------5------7-------------4------7-------------------|
E|----------6--------------------5---------------------------------|


Chorus 2x:

   1  2   3   4
G|--------------------------|
D|--------------------------|
A|---5----------------------|
E|--------------------------|

   1   2  3   4   5
G|---------------------------------|
D|---------------------------------|
A|----3----------------------------|
E|---------------------------------|

  1  2   3   4
G|--------------------------|
D|--------------------------|
A|--------------------------|
E|--6---------------------3-|

   1   2  3   4   5
G|---------------------------------|
D|---------------------------------|
A|---------------------------------|
E|----5----------------------------|


Chorus 2 2x:

  1  2   3   4
G|------------5-------------|
D|--------------------------|
A|-3--------------3----2----|
E|--------------------------|

   1   2  3   4   5
G|---------------3~----------------|
D|---------------------------------|
A|----1----------------------------|
E|---------------------------------|

  1  2   3   4
G|--------------------------|
D|------------6-------------|
A|--------------------------|
E|-4--------------4----1----|

End of First Repeat:
   1   2  3   4   5
G|----------------~----------------|
D|---------------5-----5-----------|
A|---------------------------------|
E|----3-----------------------3----|

End of Second Repeat:
   1   2  3   4   5
G|----------------~----------------|
D|---------------------------------|
A|---------------------------------|
E|----3----------------------------|


Solo: (Repeat x 2)

   1  2   3   4
G|--------------------------|
D|--------------------------|
A|--------------------------|
E|----5---------------5--4--|

   1   2  3   4   5
G|---------------------------------|
D|---------------------------------|
A|---------------------------------|
E|----3----------------------------|

   1   2   3   4   5   6
G|----------------------------------------|
D|-----------------------------2-----5----|
A|----3------------------4----------------|
E|----------------------------------------|


   1   2   3   4   5   6   7
G|------------------------------------------------|
D|------------------------------------------------|
A|-----------------7------------------------------|
E|----5-------------------0-----------------------|


   1   2   3   4   5   6   7   8
G|-------------------------------------------------5-------|
D|-----------------3---------------------------------------|
A|---------------------------------------------------------|
E|---1-------1----------1----2----3--------------------3---|

   1   2   3   4   5   6   7   8   9
G|-----------------------------------------------------------------|
D|----------------------------------------------------5-----7------|
A|-----------------5------7-------------4------7-------------------|
E|----------6--------------------5---------------------------------|


Chorus:

   1  2   3   4
G|--------------------------|
D|--------------------------|
A|---5----------------------|
E|--------------------------|

   1   2  3   4   5
G|---------------------------------|
D|---------------------------------|
A|----3----------------------------|
E|---------------------------------|

  1  2   3   4
G|--------------------------|
D|--------------------------|
A|--------------------------|
E|--6-----------------------|

   1   2  3   4   5
G|---------------------------------|
D|-------------7----7--------------|
A|---------------------------------|
E|----5----------------5-----------|

   1  2   3   4
G|--------------------------|
D|--------------------------|
A|---5----------------------|
E|--------------------------|

   1   2  3   4   5
G|---------------------------------|
D|---------------------------------|
A|----3----------------------------|
E|---------------------------------|

  1  2   3   4
G|--------------------------|
D|--------------------------|
A|--------------------------|
E|--6---------------------3-|

   1   2  3   4   5
G|---------------------------------|
D|---------------------------------|
A|---------------------------------|
E|----5----------------------------|


Chorus 2 2x:

  1  2   3   4
G|------------5-------------|
D|--------------------------|
A|-3--------------3----2----|
E|--------------------------|

   1   2  3   4   5
G|---------------3~----------------|
D|---------------------------------|
A|----1----------------------------|
E|---------------------------------|

  1  2   3   4
G|--------------------------|
D|------------6-------------|
A|--------------------------|
E|-4--------------4----1----|

End of First Repeat:
   1   2  3   4   5
G|----------------~----------------|
D|---------------5-----5-----------|
A|---------------------------------|
E|----3-----------------------3----|

End of Second Repeat:
   1   2  3   4   5
G|----------------~----------------|
D|---------------------------------|
A|---------------------------------|
E|----3----------------------------|


Outro 1 Repeat x 2:

   1  2   3   4
G|--------------------------|
D|--------------------------|
A|---5----------------------|
E|--------------------------|

   1   2  3   4   5
G|---------------------------------|
D|---------------------------------|
A|---------------------------------|
E|----3----------------------------|


Outro 2:

  1  2   3   4
G|--------------------------|
D|--------------------------|
A|--------------------------|
E|--0-----------------------|

   1   2  3   4   5
G|---------------------------------|
D|---------------------------------|
A|----0----------------------------|
E|---------------------------------|

   1  2   3   4
G|--------------------------|
D|--------------------------|
A|--------------------------|
E|---2----------------------|

   1   2  3   4   5
G|---------------------------------|
D|---------------------------------|
A|----2----------------------------|
E|---------------------------------|


************************************

| ~ Vibrato

************************************

Almost there ...

Sign in to get your own page with links to favourite songs and more. You are just one click away...

Login with Facebook Login with Google