Log in

One click and you are in

Login with Facebook Login with Google

Why sign up and log in

Guitar Tabs Explorer
King Diamond tabs for Charon

Guitar tabs

@


Charon From the album "Fatal Portrait" by King Diamond.
Tab created and edited by Serkan Gunturk.

e-mail:  gunturkk@boun.edu.tr
         serkan@king.phys.boun.edu.tr
--------------------------------------------------------------------

                      Riff 1
e:-------------------|------------------------------------------------|
B:-------------------|------------------------------------------------|
G:-------------------|o-----------------------------------------------|
D:7---6---2---3---4--|o---5-------------------7-------------------8---|
A:5---4---0---1---2--|----5-------------------7-------------------8---|
E:-------------------|----3---0---0---0---0---5---0---0---0---0---6---|




e:-------------------------------------------------|
B:-------------------------------------------------|
G:-------------------------------------------------|
D:--5-------------------7--------------------------|
A:--5-------------------7--------------------9h10--|
E:--3---0---0---0---0---5---0---0---0---0---10-----|

e:------------------------------------------------|
B:------------------------------------------------|
G:------------------------------------------------|
D:---5-------------------7-------------------8----|
A:---5-------------------7-------------------8----|
E:---3---0---0---0---0---5---0---0---0---0---6----|




e:--------------------------------------------------||
B:--------------------------------------------------||
G:-------------------------------------------------o||
D:---5-------------------7-------------------7h9---o||
A:---5-------------------7-------------------9------||
E:---3---0---0---0---0---5---0---0---0---0----------||



  Riff 2
e:----------------------------------------------------|
B:----------------------------------------------------|
G:o---------------------------------------------------|
D:o---------------------------------------------------|
A:----7-------------------5-------------------3---5---|
E:----5---5---5---5---5---3---3---3---3---3---1---3---|



                                                     Play Riff 1 again
e:------------------------------------------------||--------------------||
B:------------------------------------------------||--------------------||
G:-----------------------------------------------o||--------------------||
D:-----------------------------------------------o||--------------------||
A:---7-------------------5-------------------3----||--------------------||
E:---5---5---5---5---5---3---3---3---3---3---1----||--------------------||



   Riff 3
e:--------------------------------------------------|
B:--------------------------------------------------|
G:--------------------------------------------------|
D:--7---5---7---5-----------------------------------|
A:--5---3---5---3---8---7-------2---8---7-------2---|
E:------------------6---5---0---0---6---5---0---0---|




e:--------------------------------------------|
B:--------------------------------------------|
G:--------------------------------------------|
D:--7---7---7---4-----------4-----------4-----|
A:--5---5---5---2---2---2---2---2---2---2---2-|
E:--------------------------------------------|




e:-----------------------------------------------------------------|
B:-----------------------------------------------------------------|
G:-----------------------------------------------------------------|
D:--4-----------4-----------4-------5-----------5-----------5------|
A:--2---2---2---2---2---2---2---2---3---3---3---3---3---3---3---3--|
E:-----------------------------------------------------------------|




e:-----------------------------------------------------------------|
B:-----------------------------------------------------------------|
G:-----------------------------------------------------------------|
D:---7-----------7-----------7-----------10--9---7---4---5---4-----|
A:---5---5---5---5---5---5---5---5---3---8---7---5---2---3---2---3-|
E:-----------------------------------1---------------------------1-|



                               Play Riff 1 again    Play Riff 2
e:---------------------------||------------------||-------------||
B:---------------------------||------------------||-------------||
G:---------------------------||------------------||-------------||
D:---10--9---7---4---5---4---||------------------||-------------||
A:---8---7---5---2---3---2---||------------------||-------------||
E:---------------------------||------------------||-------------||



  Play Riff 1
e:------------||---------------------------------------------------|
B:------------||---------------------------------------------------|
G:------------||---------------------------------------------------|
D:------------||---7---5---7---5-----------------------------------|
A:------------||---5---3---5---3---8---7-------2---8---7-------2---|
E:------------||-------------------6---5---0---0---6---5---0---0---|
  Waste no time!



e:---------------------------------------------------------------------------|
B:---------------------------------------------------------------------------|
G:---------------------------------------------------------------------------|
D:--7---7---7---4-----------4-----------4-------4-----------4-----------4----|
A:--5---5---5---2---2---2---2---2---2---2---2---2---2---2---2---2---2---2---2|
E:---------------------------------------------------------------------------|




e:--|-----------------------------------------------------------------|
B:--|-----------------------------------------------------------------|
G:--|-----------------------------------------------------------------|
D:--|--5-----------5-----------5-------7-----------7-----------7------|
A:--|--3---3---3---3---3---3---3---3---5---5---5---5---5---5---5---5--|
E:--|-----------------------------------------------------------------|




e:----------------------------------||
B:----------------------------------||
G:----------------------------------||
D:------7---9---10--9-----------5---||
A:--3-------------------6---9---7---||
E:--1-------------------------------||



   Here comes the first solo, play this rhythm behind.
e:-------------------------------------------------------------------|
B:-------------------------------------------------------------------|
G:o------------------------------------------------------------------|
D:o----------10------9-----------9-----------------------------------|
A:-----------7-------7-----------7-----------------------------------|
E:---0---0-------0-------0---0-------0---0---0---0---0---0---0---0---|




e:----------------------------------------------------------||
B:----------------------------------------------------------||
G:---------------------------------------------------------o||
D:----------10------9--------------------------------------o||
A:----------7-------7-----------2---1---0-------0---1-------||
E:--0---0-------0-------0---0---------------3-----------3---||




e:--------------------------------------------------|
B:--------------------------------------------------|
G:--------------------------------------------------|
D:--------------------------------------------------|
A:--4-------------------3-------2-------3---2-------|
E:--2---2---2---2---2-------2-------2-----------3---|




e:--------------------------------------------------||
B:--------------------------------------------------||
G:--------------------------------------------------||
D:--------------------------------------------------||
A:--4-------------------3-------2-------2---3---4---||
E:--2---2---2---2---2-------2-------2---------------||




Tab created and edited by Serkan Gunturk.

e-mail:  gunturkk@boun.edu.tr
         serkan@king.phys.boun.edu.tr

Almost there ...

Sign in to get your own page with links to favourite songs and more. You are just one click away...

Login with Facebook Login with Google