Log in

One click and you are in

Login with Facebook Login with Google

Why sign up and log in

Guitar Tabs Explorer
King Crimson chords for 21st century schizoid man acoustic

21st Century Schizoid Man Acoustic chords by King Crimson

King Crimson chords for 21st century schizoid man acoustic

Guitar chords with lyrics

Intro:

 A chord diagramC minorCm A chord diagramBb majorBb A chord diagramC minorCm  A chord diagramBb majorBb A chord diagramC minorCm A chord diagramD MajorD  A chord diagramFF A chord diagramF#F# A chord diagramG+G A chord diagramC minorCm  A chord diagramBb majorBb A chord diagramC minorCm A chord diagramBb majorBb A chord diagramC minorCm A chord diagramD MajorD A chord diagramFF A chord diagramF#F# A chord diagramG+G  A chord diagramC minorCm  A chord diagramBb majorBb A chord diagramC minorCm  A chord diagramBb majorBb A chord diagramC minorCm A chord diagramD MajorD A chord diagramFF A chord diagramF#F# A chord diagramG+G

e|-----------------------------------------------------------------13b-14b-15b-|e
A chord diagramBB|-----------------------------------------------------------------16b-17b-18b-|A chord diagramBB
A chord diagramG+G|-----------------------------------------------------------------------------|A chord diagramG+G
A chord diagramD MajorD|--5---3/5--1-3-5--3-4-5--5---3/5--1-3-5--3-4-5---5---3/5--1-3-5--------------|A chord diagramD MajorD
A chord diagramA augmentedA|--3 --1/3--1-3-3--3-4-5--3---1/3--1-3-3--3-4-5---3---1/3--1-3-3--------------|A chord diagramA augmentedA
A chord diagramE MajorE|------------------1-2-3------------------1-2-3-------------------------------|A chord diagramE MajorE

Verse 1:

A chord diagramC minorCm
Cat's foot iron claw, neuro-surgeons scream for more, at paranoia's poison door
A chord diagramBb majorBb
21st century schizoid man.


{Play Intro}


Verse 2:

A chord diagramC minorCm
Blood rack barbed wire, politicians' funeral pyre, innocents raped with napalm fire
A chord diagramBb majorBb
21st century schizoid man.


{Play Intro}
(Instrumental Break-see below}


Verse 3:

A chord diagramC minorCm
Death seed blind man's greed, poets' starving children bleed, nothing he's got he really needs
A chord diagramBb majorBb
21st century schizoid man.




(End)




Instrumental break:

Part 1: Gradually play chords faster

A chord diagramFF  A chord diagramF#F#  A chord diagramG+G  A chord diagramFF  A chord diagramF#F#  A chord diagramG+G  A chord diagramFF A chord diagramF#F# A chord diagramG+G A chord diagramFF A chord diagramF#F# A chord diagramG+G A chord diagramFF A chord diagramF#F# A chord diagramG+G A chord diagramFF A chord diagramF#F# A chord diagramG+G A chord diagramFF A chord diagramF#F# A chord diagramG+G A chord diagramFF A chord diagramF#F# A chord diagramG+G


Part 2:

|----------------------------|--------------------------|
|--------4-5-6---------------|--------4-5-6-------------|
|5-5-5-5-------5-5-5-5-4-3---|5-5-5-5-----------3---3-4-|
|--------------------------5-|--------------4-5---5-----|
|----------------------------|--------------------------|
|----------------------------|--------------------------|

|----------------------------|------------------6---6-7-|
|--------4-5-6---------------|--------4-5-6-7-8---8-----|
|5-5-5-5-------5-5-5-5-4-3---|5-5-5-5-------------------|
|--------------------------5-|--------------------------|
|----------------------------|--------------------------|
|----------------------------|--------------------------|

or octave below:

|----------------------------|----------------------------|
|----------------------------|----------------------------|
|----------------------------|-------------------3---3-4--|
|--------1-2-3---------------|--------1-2-3--4h5---5------|
|3-3-3-3-------3-3-3-3-2-1---|3-3-3-3---------------------|
|--------------------------3-|----------------------------|


|----------------------------|----------------------------|
|----------------------------|----------------------------|
|----------------------------|-------------------3---3-4--|
|--------1-2-3---------------|--------1-2-3--4-5---5------|
|3-3-3-3-------3-3-3-3-2-1---|3-3-3-3---------------------|
|--------------------------3-|----------------------------|


Part 3:

|------------------------------------|------------------------------------|
|11-------11-------11----------------|11-------11-------11----------------|
|---11-12----11-12----11-12-11-10----|---11-12----11-12----11-12-11-10----|
|---------------------------------13-|---------------------------------13-|
|------------------------------------|------------------------------------|
|------------------------------------|------------------------------------|

|------------------------------------|------------------------------------|
|---------------------------------10-|11-------11-------11----------------|
|12-------12-------12-------11-12----|---11-12----11-12----11-12-11-10----|
|---13-15----13-15----13-15----------|---------------------------------13-|
|------------------------------------|------------------------------------|
|------------------------------------|------------------------------------|

|------------------------------------|
|11-------11-------11----------------|
|---11-12----11-12----11-12-11-10----|
|---------------------------------13-|
|------------------------------------|
|------------------------------------|


Part 4: Improvisational jazz metal solo for a few minutes then end in a quick scale run


then play Part 3 before going back to the main riff and eventually Verse 3.

Other versions of 21st Century Schizoid Man Acoustic

21st century schizoid manTabs

Almost there ...

Sign in to get your own page with links to favourite songs and more. You are just one click away...

Login with Facebook Login with Google